Home » B » Borat »

Borat - Throw The Jew Down The Well Tabs

Artists:  A B C D E F G H I J K L M N O P Q R S T U V W X Y Z # 

Throw The Jew Down The Well Tabs

(ver. 1) Click to play this song!
Borat
 
Throw the Jew Down the Well 


Standard tuning
Main chords that are repeated through out Song 
 G

 |--2-----2--|           
 |--2-----2--|
 |--0-----0--|
 |--0-----0--|
 |--2-0h2-2--|
 |3----------| repeat 4

 C 

 |--0------0--|
 |--1------1--|
 |--0------0--|
 |--2-0h2--2--|
 |3-----------|
 |------------| repeat 4 

 D

 |--2-----2-|
 |--3-----3-|
 |--2-0h2-2-|
 |0-0-----0-|
 |----------|
 |----------|repeat 4

G

 |--2-----2--|           
 |--2-----2--|
 |--0-----0--|
 |--0-----0--|
 |--2-0h2-2--|
 |3----------| repeat 2 and end on G chord 


Repeat and sing along with Stupid Accent :]
            
Submit corrections

↑ Back to top | Tablatures and chords for acoustic guitar and electric guitar, ukulele, drums are parodies/interpretations of the original songs. You may use it for private study, scholarship, research or language learning purposes only