Home » B » Bon Jovi »

Bon Jovi - Shine Tabs

Artists:  A B C D E F G H I J K L M N O P Q R S T U V W X Y Z # 

Shine Tabs

(ver. 1) Click to play this song!
Bon Jovi
[Intro]
 
e|----------------------------|----------------------------|----------------------------|
B|--/6-6-6-5-5-5-3-3-3-1-1-1--|--/6-6-6-5-5-5-3-3-3-1-1-1--|--/8-8-8-6-6-6-5-5-5-3-3-3--|
G|----------------------------|----------------------------|----------------------------|
D|----------------------------|----------------------------|----------------------------|
A|----------------------------|----------------------------|----------------------------|
E|----------------------------|----------------------------|----------------------------|
 
e|----------------------------|
B|--/6-6-6-5-5-5-3-3-3-1-1-1--|
G|----------------------------|
D|----------------------------|
A|----------------------------|
E|----------------------------|
 
 
[Verse 1]
 
e|--0-0-0-0-0-0-0-0--|--0-0-0-0-0-0-0-0--|--1-1-1-1-1-1-1-1--|-------------------|
B|--1-1-1-1-1-1-1-1--|--1-1-1-1-1-1-1-1--|--1-1-1-1-1-1-1-1--|--0-0-0-0-0-0-0-0--|
G|--0-0-0-0-0-0-0-0--|--2-2-2-2-2-2-2-2--|--2-2-2-2-2-2-2-2--|--0-0-0-0-0-0-0-0--|
D|--2-2-2-2-2-2-2-2--|--2-2-2-2-2-2-2-2--|--3-3-3-3-3-3-3-3--|--0-0-0-0-0-0-0-0--| 2x
A|--3-3-3-3-3-3-3-3--|--0-0-0-0-0-0-0-0--|--3-3-3-3-3-3-3-3--|--2-2-2-2-2-2-2-2--|
E|-------------------|-------------------|--1-1-1-1-1-1-1-1--|--3-3-3-3-3-3-3-3--|
 
 
[Pre-Chorus]
 
e|--1-1-1-1-0-0-0-0--|-------------------|
B|--1-1-1-1-1-1-1-1--|--1-1-1-1-0-0-0-0--|
G|--2-2-2-2-2-2-2-2--|--0-0-0-0-0-0-0-0--|
D|--3-3-3-3-2-2-2-2--|--0-0-0-0-0-0-0-0--| 2x
A|--3-3-3-3-0-0-0-0--|--2-2-2-2-2-2-2-2--|
E|--1-1-1-1----------|--3-3-3-3-3-3-3-3--|
 
 
[Chorus]
 
e|--0----|--0----|--1----|--3----|
B|--1----|--1----|--1----|--3----|
G|--0----|--2----|--2----|--0----|
D|--2----|--2----|--3----|--0----| 2x
A|--3----|--0----|--3----|--2----|
E|-------|-------|--1----|--3----|
 
e|--------0-----------0------|-----------------|
B|------1---1-------1---1----|--------1--------|
G|----0-------0---2-------2--|------2---2------|
D|---------------------------|----3-------3----|
A|--3-----------0------------|--3--------------|
E|---------------------------|-----------------|
 
 
[Verse 2]
 
e|--0-0-0-0-0-0-0-0--|--0-0-0-0-0-0-0-0--|--1-1-1-1-1-1-1-1--|-------------------|
B|--1-1-1-1-1-1-1-1--|--1-1-1-1-1-1-1-1--|--1-1-1-1-1-1-1-1--|--0-0-0-0-0-0-0-0--|
G|--0-0-0-0-0-0-0-0--|--2-2-2-2-2-2-2-2--|--2-2-2-2-2-2-2-2--|--0-0-0-0-0-0-0-0--|
D|--2-2-2-2-2-2-2-2--|--2-2-2-2-2-2-2-2--|--3-3-3-3-3-3-3-3--|--0-0-0-0-0-0-0-0--| 2x
A|--3-3-3-3-3-3-3-3--|--0-0-0-0-0-0-0-0--|--3-3-3-3-3-3-3-3--|--2-2-2-2-2-2-2-2--|
E|-------------------|-------------------|--1-1-1-1-1-1-1-1--|--3-3-3-3-3-3-3-3--|
 
Guitar nº2:
 
e|-----------|---------|-----------|----------|
B|--------5--|---------|-----------|----------|
G|----5-7----|--4------|----5-7-5--|----5--4--|
D|--5--------|------5--|--3--------|--3-------| 2x
A|-----------|---------|-----------|----------|
E|-----------|---------|-----------|----------|
 
 
[Pre-Chorus]
 
e|--1-1-1-1-0-0-0-0--|-------------------|
B|--1-1-1-1-1-1-1-1--|--1-1-1-1-0-0-0-0--|
G|--2-2-2-2-2-2-2-2--|--0-0-0-0-0-0-0-0--|
D|--3-3-3-3-2-2-2-2--|--0-0-0-0-0-0-0-0--| 2x
A|--3-3-3-3-0-0-0-0--|--2-2-2-2-2-2-2-2--|
E|--1-1-1-1----------|--3-3-3-3-3-3-3-3--|
 
 
Guitar nº2:
 
e|----8---10---12---8---10---12--|----7---8---10---7---8---10--|
B|--8---8----8-------------------|--8---8---8----8---8---8-----|
G|----------------9---9----9-----|-----------------------------|
D|-------------------------------|-----------------------------|
A|-------------------------------|-----------------------------|
E|-------------------------------|-----------------------------|
 
e|----8---10---12---8---10---12--|-----13----13----13----15----15----15--|
B|--8---8----8-------------------|--13----13----13----13----13----13-----|
G|----------------9---9----9-----|---------------------------------------|
D|-------------------------------|---------------------------------------|
A|-------------------------------|---------------------------------------|
E|-------------------------------|---------------------------------------|
 
 
[Chorus]
 
e|--0-0-0-0-0-0-0-0--|--0-0-0-0-0-0-0-0--|--1-1-1-1-1-1-1-1--|--3-3-3-3-3-3-3-3--|
B|--1-1-1-1-1-1-1-1--|--1-1-1-1-1-1-1-1--|--1-1-1-1-1-1-1-1--|--0-0-0-0-0-0-0-0--|
G|--0-0-0-0-0-0-0-0--|--2-2-2-2-2-2-2-2--|--2-2-2-2-2-2-2-2--|--0-0-0-0-0-0-0-0--|
D|--2-2-2-2-2-2-2-2--|--2-2-2-2-2-2-2-2--|--3-3-3-3-3-3-3-3--|--0-0-0-0-0-0-0-0--| 4x
A|--3-3-3-3-3-3-3-3--|--0-0-0-0-0-0-0-0--|--3-3-3-3-3-3-3-3--|--2-2-2-2-2-2-2-2--|
E|-------------------|-------------------|--1-1-1-1-1-1-1-1--|--3-3-3-3-3-3-3-3--|
 
 
Guitar nº2:
 
e|--------15-------15-------15-------15--|--------------|--8---8---10---12----|--7-------|
B|--12h13----12h13----12h13----12h13-----|--12~---10~---|----8---8----8----8--|-----8~---|
G|---------------------------------------|--------------|---------------------|----------|
D|---------------------------------------|--------------|---------------------|----------| 2x
A|---------------------------------------|--------------|---------------------|----------|
E|---------------------------------------|--------------|---------------------|----------|
 
e|--------0-----------0------|-----------------|
B|------1---1-------1---1----|--------1--------|
G|----0-------0---2-------2--|------2---2------|
D|---------------------------|----3-------3----| 2x
A|--3-----------0------------|--3--------------|
E|---------------------------|-----------------|
 
 
[Solo]
 
e|----------------------------|----------------------------|----------------------------|
B|--/6-6-6-5-5-5-3-3-3-1-1-1--|--/6-6-6-5-5-5-3-3-3-1-1-1--|--/8-8-8-6-6-6-5-5-5-3-3-3--|
G|----------------------------|----------------------------|----------------------------|
D|----------------------------|----------------------------|----------------------------|
A|----------------------------|----------------------------|----------------------------|
E|----------------------------|----------------------------|----------------------------|
 
e|----------------------------|----------------------------|----------------------------|
B|--/6-6-6-5-5-5-3-3-3-1-1-1--|--/6-6-6-5-5-5-3-3-3-1-1-1--|--/6-6-6-5-5-5-3-3-3-1-1-1--|
G|----------------------------|----------------------------|----------------------------|
D|----------------------------|----------------------------|----------------------------|
A|----------------------------|----------------------------|----------------------------|
E|----------------------------|----------------------------|----------------------------|
 
e|-------------------------------|---------------------------------------|
B|--/8-8-8-6-6-6-8-8-8-10-10-10--|--12-12-12-13-13-13-15-15-15-17-17-17--|
G|-------------------------------|---------------------------------------|
D|-------------------------------|---------------------------------------|
A|-------------------------------|---------------------------------------|
E|-------------------------------|---------------------------------------|
 
Guitar nº2:
 
e|--0-0-0-0-0-0-0-0--|--0-0-0-0-0-0-0-0--|--1-1-1-1-1-1-1-1--|--3-3-3-3-3-3-3-3--|
B|--1-1-1-1-1-1-1-1--|--1-1-1-1-1-1-1-1--|--1-1-1-1-1-1-1-1--|--0-0-0-0-0-0-0-0--|
G|--0-0-0-0-0-0-0-0--|--2-2-2-2-2-2-2-2--|--2-2-2-2-2-2-2-2--|--0-0-0-0-0-0-0-0--|
D|--2-2-2-2-2-2-2-2--|--2-2-2-2-2-2-2-2--|--3-3-3-3-3-3-3-3--|--0-0-0-0-0-0-0-0--| 2x
A|--3-3-3-3-3-3-3-3--|--0-0-0-0-0-0-0-0--|--3-3-3-3-3-3-3-3--|--2-2-2-2-2-2-2-2--|
E|-------------------|-------------------|--1-1-1-1-1-1-1-1--|--3-3-3-3-3-3-3-3--|
 
 
[Pre-Chorus]
 
e|--3---0--|---------|--1---0--|---------|--3-3-3-3-3-3-3-3--|--3-3-3-3-3-3-3-3--|
B|--1---1--|--1---0--|--1---1--|--1---0--|--0-0-0-0-0-0-0-0--|--0-0-0-0-0-0-0-0--|
G|--2---2--|--0---0--|--2---2--|--0---0--|--0-0-0-0-0-0-0-0--|--0-0-0-0-0-0-0-0--|
D|--3---2--|--0---0--|--3---2--|--0---0--|--0-0-0-0-0-0-0-0--|--0-0-0-0-0-0-0-0--|
A|------0--|--2---2--|------0--|--2---2--|--2-2-2-2-2-2-2-2--|--2-2-2-2-2-2-2-2--|
E|---------|--3---3--|---------|--3---3--|--3-3-3-3-3-3-3-3--|--3-3-3-3-3-3-3-3--|
 
Guitar nº2:
 
e|---------|--|--|--|--13--13--13--|--15--15--15--|
B|--13-----|--|--|--|--------------|--------------|
G|---------|--|--|--|--------------|--------------|
D|---------|--|--|--|--------------|--------------|
A|---------|--|--|--|--------------|--------------|
E|---------|--|--|--|--------------|--------------|
 
 
[Chorus]
 
e|--0-0-0-0-0-0-0-0--|--0-0-0-0-0-0-0-0--|--1-1-1-1-1-1-1-1--|--3-3-3-3-3-3-3-3--|
B|--1-1-1-1-1-1-1-1--|--1-1-1-1-1-1-1-1--|--1-1-1-1-1-1-1-1--|--0-0-0-0-0-0-0-0--|
G|--0-0-0-0-0-0-0-0--|--2-2-2-2-2-2-2-2--|--2-2-2-2-2-2-2-2--|--0-0-0-0-0-0-0-0--|
D|--2-2-2-2-2-2-2-2--|--2-2-2-2-2-2-2-2--|--3-3-3-3-3-3-3-3--|--0-0-0-0-0-0-0-0--| 4x
A|--3-3-3-3-3-3-3-3--|--0-0-0-0-0-0-0-0--|--3-3-3-3-3-3-3-3--|--2-2-2-2-2-2-2-2--|
E|-------------------|-------------------|--1-1-1-1-1-1-1-1--|--3-3-3-3-3-3-3-3--|
 
 
Guitar nº2:
 
e|--------15-------15-------15-------15--|--------------|--8---8---10---12----|--7-------|
B|--12h13----12h13----12h13----12h13-----|--12~---10~---|----8---8----8----8--|-----8~---|
G|---------------------------------------|--------------|---------------------|----------|
D|---------------------------------------|--------------|---------------------|----------| 2x
A|---------------------------------------|--------------|---------------------|----------|
E|---------------------------------------|--------------|---------------------|----------|
 
e|--------15-------15-------15-------15--|--------------|
B|--12h13----12h13----12h13----12h13-----|--12~---10~---|
G|---------------------------------------|--------------|
D|---------------------------------------|--------------| 2x
A|---------------------------------------|--------------|
E|---------------------------------------|--------------|
 
 
[Outro]
 
e|----------------------------|----------------------------|----------------------------|
B|--/6-6-6-5-5-5-3-3-3-1-1-1--|--/6-6-6-5-5-5-3-3-3-1-1-1--|--/8-8-8-6-6-6-5-5-5-3-3-3--|
G|----------------------------|----------------------------|----------------------------|
D|----------------------------|----------------------------|----------------------------|
A|----------------------------|----------------------------|----------------------------|
E|----------------------------|----------------------------|----------------------------|
 
e|----------------------------|----------------------------|----------------------------|
B|--/6-6-6-5-5-5-3-3-3-1-1-1--|--/6-6-6-5-5-5-3-3-3-1-1-1--|--/6-6-6-5-5-5-3-3-3-1-1-1--|
G|----------------------------|----------------------------|----------------------------|
D|----------------------------|----------------------------|----------------------------|
A|----------------------------|----------------------------|----------------------------|
E|----------------------------|----------------------------|----------------------------|
 
e|-------------------------------|---------------------------------------|--------|
B|--/8-8-8-6-6-6-8-8-8-10-10-10--|--12-12-12-13-13-13-15-15-15-17-17-17--|--13----|
G|-------------------------------|---------------------------------------|--------|
D|-------------------------------|---------------------------------------|--------|
A|-------------------------------|---------------------------------------|--------|
E|-------------------------------|---------------------------------------|--------|
 
Guitar nº2:
 
e|--0-0-0-0-0-0-0-0--|--0-0-0-0-0-0-0-0--|--1-1-1-1-1-1-1-1--|--3-3-3-3-3-3-3-3--|
B|--1-1-1-1-1-1-1-1--|--1-1-1-1-1-1-1-1--|--1-1-1-1-1-1-1-1--|--0-0-0-0-0-0-0-0--|
G|--0-0-0-0-0-0-0-0--|--2-2-2-2-2-2-2-2--|--2-2-2-2-2-2-2-2--|--0-0-0-0-0-0-0-0--|
D|--2-2-2-2-2-2-2-2--|--2-2-2-2-2-2-2-2--|--3-3-3-3-3-3-3-3--|--0-0-0-0-0-0-0-0--| 2x
A|--3-3-3-3-3-3-3-3--|--0-0-0-0-0-0-0-0--|--3-3-3-3-3-3-3-3--|--2-2-2-2-2-2-2-2--|
E|-------------------|-------------------|--1-1-1-1-1-1-1-1--|--3-3-3-3-3-3-3-3--|
 
e|--3----|
B|--1----|
G|--2----|
D|--3----|
A|-------|
E|-------|
            
Submit corrections

↑ Back to top | Tablatures and chords for acoustic guitar and electric guitar, ukulele, drums are parodies/interpretations of the original songs. You may use it for private study, scholarship, research or language learning purposes only