» » »

Bon Jovi - Lay Your Hands On Me Bass

Artists:  A B C D E F G H I J K L M N O P Q R S T U V W X Y Z # 

Lay Your Hands On Me Bass

(ver. 1) Click to play this song!
Bon Jovi
 Rating:
4/5 (4 votes)
                bon_jovi/lay_your_hands_on_me.btab

Basstab by Jan Bjorklund, Finland; 
You are welcome to request for basstabs!
Bienvenidos a pedirme transcripciones para el bajo!
Fingering and positions as suggested by TablEdit. 


TablEdited by Jan Bjorklund
Tuning : E A D G 	Time Signature: 4/4

 |       |       |       |        |       |       |       |        
|--------------------------------|--------------------------------|
|--------------------------------|--------------------------------|
|5-------3-------5---------------|3---2---3---2-0---------------0-|
|--------------------------------|------------------3-3-0-3---3---|

 |       |       |       |        |       |       |       |        
|--------------------------------|--------------------------------|
|3-------------------------------|--------------------------------|
|----5-----3-----5---------------|2h3-3-2-3---2-0---------------0-|
|--------------------------------|------------------3-3-0-3---3---|

 |       |       |       |        |       |       |       |        
|--------------------------------|--------------------------------|
|3-------------------------------|--------------------------------|
|----5-----3-----5---------------|2h3-3-2-3---2-0---------------0-|
|--------------------------------|------------------3-3-0-3---3---|

 |       |       |       |        |       |       |       |        
|--------------------------------|--------------------------------|
|3-------------------------------|--------------------------------|
|----5-----3-----5---------------|2h3-3-2-3---2-0-----------------|
|--------------------------------|------------------3-3-0-3-------|

 |       |       |       |        |       |       |       |        
|--------------------------------|--------------------------------|
|3-------------------------------|--------------------------------|
|----5-----3-----5---------------|2h3-3-2-3---2-0-----------------|
|--------------------------------|------------------3-3-0-3-------|

 |       |       |       |        |       |       |       |        
|--------------------------------|--------------------------------|
|3-------------------------------|--------------------------------|
|----5-----3-----5---------------|2h3-3-2-3---2-0-----------------|
|--------------------------------|----------------2h3-3-0-3-------|

 |       |       |       |        |       |       |       |        
|--------------------------------|--------------------------------|
|--------------------------------|--------------------------------|
|--------------------------------|--------------------------------|
|3-------3-------3-------3-------|3-------3-------3-------3---1---|

 |       |       |       |        |       |       |       |        
|--------------------------------|--------------------------------|
|--------------------------------|--------------------------------|
|5-------5-------5-------5-------|5-------5-------5-------5-------|
|--------------------------------|----------------------------5---|

 |       |       |       |        |       |       |       |        
|--------------------------------|--------------------------------|
|--------------------------------|--------------------------------|
|--------------------------------|--------------------------------|
|3-------3-------3-------3-------|3-------3-------3-------3-------|

 |       |       |       |        |       |       |       |        
|--------------------------------|--------------------------------|
|--------------------------------|--------------------------------|
|--------------------------------|--------------------------------|
|1---1---1---1---1---1---1---1---|----3------3---3------3-3---3/1-|
            
Submit corrections

↑ Back to top | Tablatures and chords for acoustic guitar and electric guitar, ukulele, drums are parodies/interpretations of the original songs. You may use it for private study, scholarship, research or language learning purposes only