Home » B » Bomb The Music Industry »

Bomb The Music Industry - Everybody That Loves You Tabs

Artists:  A B C D E F G H I J K L M N O P Q R S T U V W X Y Z # 

Everybody That Loves You Tabs

(ver. 1) Click to play this song!
Bomb The Music Industry
Heres everybody that loves you, the order is really confusing but everythings there

thanks!!


intro riff (both guitars):
------------------------------------------------------------------------------------|
------------------------------------------------------------------------------------|
------------------------------------------------------------------------------------|  x2
---------------------------------7-77---------------------------------7-77----------|
--0-5-/7h9-7-5-0-00---0-5-7h9-7-5-------9-9-7h9-7-5-2-22---9-9-7h9-7-5------00------|
------------------------------------------------------------------------------------|



Guitar 1:

  D Db G
---------|
---------|
--7-6----|
--7-6-5--|
--5-4-5--|
------3--|


Guitar 2:
-------------------------------|
-------------------------------|
--119119119--9-119119119--9----|
-----------12-----------12-12--|
-------------------------------|
-------------------------------|

Then Guitar 1 plays D and G while 2 plays this:
-----------------------------------------------------------------------------------------|
-----------------------------------------------------------------------------------------|
--11-9-11-9----------9--11-9-11-9----------9-11-9-11-----------9-11-9-11-9----------9----|   x2
------------/12-1212--------------/12-1212-----------/9-99-12--------------/12-1212------|
-----------------------------------------------------------------------------------------|
-----------------------------------------------------------------------------------------|

Then 1 repeats D-Db-G and 2 repeats the other riff.

now 1 just chokes over D and G.

D-Db-G again...

Guitar 1:

 B F# G D Db G
---------------|
---------------|
--4-----7-6----|  X2
--4-4-5-7-6-5--|
--2-4-5-5-4-5--|
----2-3-----3--|

Guitar 1 plays D&G while 2 plays part of the intro riff, then both go into:

 D Db G E B A G B E
---------------------|
---------------------|
--7-6-----4-----4----|
--7-6-5-2-4-7-5-4-2--|
--5-4-5-2-2-7-5-2-2--|
------3-0---5-3---0--|


   D   D    G
---------------|
---------------|
---5----5------|
----5--5----5--|
--7---7----5---|
----------3----|

Guitar 2
-------------------------------------------------------------------------|
----------------------------------------------------12-10----------------|
--119119119--9-119119119--9------------11911-9------------11-12-11-9-----|
-----------12-----------12-12-11--------------12-11------------------12--|
---------------------------------12-8------------------------------------|
-------------------------------------------------------------------------|

Both

 D Db G B F# G
---------------|
---------------|
--7-6---4------|
--7-6-5-4-4-5--|
--5-4-5-2-4-5--|
------3---2-3--|

Then its the intro riff, but with this added at the end
---------------------------------|
---------------------------------|
---------------------------------|
--9-7-9p7---7---9-7-9p7-9-11-12--|
----------9---9------------------|
---------------------------------|

Guitar 1
A --/5-5-5-5-5--5-- x2

at the same time, 2 does

D --/7-7-7-7-7--7-- x2

Then

1
E --/3-3-3-3-3--3-- x2

while 2...
A --/5-5-5-5-5--5-- x2


then those 2 parts repeat again, and youre done.
            
Submit corrections

↑ Back to top | Tablatures and chords for acoustic guitar and electric guitar, ukulele, drums are parodies/interpretations of the original songs. You may use it for private study, scholarship, research or language learning purposes only