Home » B » Bomb The Music Industry »

Bomb The Music Industry - Btmi Are Fucking Dead Tabs

Artists:  A B C D E F G H I J K L M N O P Q R S T U V W X Y Z # 

Btmi Are Fucking Dead Tabs

(ver. 1) Click to play this song!
Bomb The Music Industry
with corrections/requests



I didn't bother tabbing out the strum patterns because it would take a lot longer,
but if you've ever played a ska song, it

should be no trouble.


Verse:

  Bb  F         Eb            Gm                    Ebm
--6-6-8--8--6-6-6-6-6-6-8--8--3-3-6-6-6-6-8--8--3-3--6~--6-6-8--8--6--|
--6-6-10-10-6-6-8-8-6-6-10-10-3-3-8-8-6-6-10-10-3-3--7~--6-6-10-10-6--|
--7-7-10-10-7-7-8-8-7-7-10-10-3-3-8-8-7-7-10-10-3-3--8~--7-7-10-10-7--|
--8-8-10-10-8-8-8-8-8-8-10-10-5-5-8-8-8-8-10-10-5-5--8~--8-8-10-10-8--|
--8-8-8--8--8-8-6-6-8-8-8--8--5-5-6-6-8-8-8--8--5-5--6~--8-8-8--8--8--|
--6-6-------6-6-----6-6-------3-3-----6-6-------3-5------6-6-------6--|



Chorus:

  Bb                  D               Eb              Ebm
--6-6-6-6-6-6-6-6-6-6-5-5-5-5-5-5-5-5-6-6-6-6-6-6-6-6-6-6-6-6-6-6-6--|
--6-6-6-6-6-6-6-6-6-6-7-7-7-7-7-7-7-7-8-8-8-8-8-8-8-8-7-7-7-7-7-7-7--|
--7-7-7-7-7-7-7-7-7-7-7-7-7-7-7-7-7-7-8-8-8-8-8-8-8-8-8-8-8-8-8-8-8--| x2
--8-8-8-8-8-8-8-8-8-8-7-7-7-7-7-7-7-7-8-8-8-8-8-8-8-8-8-8-8-8-8-8-8--|
--8-8-8-8-8-8-8-8-8-8-5-5-5-5-5-5-5-5-6-6-6-6-6-6-6-6-6-6-6-6-6-6-6--|
--6-6-6-6-6-6-6-6-6-6------------------------------------------------|



-Verse-



Bridge:

  Bb            D           Eb            F
----------------------------------------------------------|
----------------------------------------------------------|
----------------77777777777-8888888888888-10101010101010--|  x2
--8888888888888-77777777777-8888888888888-10101010101010--|
--8888888888888-55555555555-6666666666666-8-8-8-8-8-8-8---|
--6666666666666-------------------------------------------|

  G              F#
--------------------------------------------------------------------------|
--------------------------------------------------------------------------|
--------------------------------------------77777777777-88888888888888888-|
--55555555555555-4444444444444-888888888888-77777777777-88888888888888888-|
--55555555555555-4444444444444-888888888888-55555555555-66666666666666666-|
--33333333333333-2222222222222-666666666666-------------------------------|

--------------------------------------------------------------------------|
--------------------------------------------------------------------------|
-------------7777777777777-88888888888888888888---------------------------|
888888888888-7777777777777-88888888888888888888---------------------------|
888888888888-5555555555555-66666666666666666666---------------------------|
666666666666--------------------------------------------------------------|


Repeat the chorus and you're done
            
Submit corrections

↑ Back to top | Tablatures and chords for acoustic guitar and electric guitar, ukulele, drums are parodies/interpretations of the original songs. You may use it for private study, scholarship, research or language learning purposes only