» » »

Bombay Bicycle Club - Glass To Glass Tabs

Artists:  A B C D E F G H I J K L M N O P Q R S T U V W X Y Z # 

Glass To Glass Tabs

(ver. 1) Click to play this song!
Bombay Bicycle Club
 Rating:
4.4/5 (8 votes)

 Glass To Glass  lessons Tabs too difficult? Try these video lessons and learn fast
 
                CAPO 5th Fret


[Intro]

   1  +  2  +  3  +  4  +  1  +  2  +  3  +  4  +  1  +  2  +  3  +  4  +  1  +  2  +  3  +  4  +
e|----------------0-----------------------------------------------0-----------0-----0-------------|
B|----0--2-----2-----------------------------------0-----0--------0-----------0-----0--0----------|
G|-1--------1--------1-----1-----------------1-----1-----2-----2-----2-----2-----2--------2--1----|
D|----------------------------4--2-----2--4-------------------------------------------------------|
A|-------0-----0--------------------------------------0--------0-----------0----------------------|
E|-0--------------------0-----------0-----------0-----------0-----------0--------0----------------|


[Verse]

   1  +  2  +  3  +  4  +  1  +  2  +  3  +  4  +  1  +  2  +  3  +  4  +  1  +  2  +  3  +  4  + 
e|----------------0-----------------------------------------------0--------------------------0------|
B|----0--2-----2--------------------------------------0--2-----2-----0-----------------0--------(0)-|
G|-1--------1--------1-----1-----------------1-----1--------1--------------1-----2--------2---------|
D|----------------------------4--2-----2--4---------------------------------------------------------|
A|-------0-----0-----------------------------------------0-----0--------------0---------------------|
E|-0--------------------0-----------0-----------0--0--------------------0-----------0---------------|

   1  +  2  +  3  +  4  +  1  +  2  +  3  +  4  +  1  +  2  +  3  +  4  +  1  +  2  +  3  +  4  +
e|-------------0-----0-----------------------------------------------0-----------0-----------------|
B|-2--0--2-----------------2-----0--------------------------------0-----0-----0-----0-----0--------|
G|----------------------------------2-----1-----------------1--2-----------2-----------2-----1-----|
D|----------------------------------------------4-----2-----------------------------------------4--|
A|-0--------0-----0-----0-----0--------------------------------------------------------------------|
E|-------------------------------------0----0------0-----0-----------------------------------------|

(Repeat)

Last Verse:

   1  +  2  +  3  +  4  +  1  +  2  +  3  +  4  +  1  +  2  +  3  +  4  +  1  +  2  +  3  +  4  +
e|-------------0-----0-----------------------------------------------0-----------0~----------------|
B|-2--0--2-----------------2-----0--------------------------------0-----0-----0--0~----------------|
G|----------------------------------2-----1-----------------1--2-----------2-----2~----------------|
D|----------------------------------------------4-----2--------------------------x-----------------|
A|-0--------0-----0-----0-----0--------------------------------------------------0~----------------|
E|-------------------------------------0-----0-----0-----0-----------------------0~----------------|            
Submit corrections


        Glass To Glass  lessons Hard to play? Try these video lessons and learn fast Glass To Glass  lessons
        
↑ Back to top | Tablatures and chords for acoustic guitar and electric guitar, ukulele, drums are parodies/interpretations of the original songs. You may use it for private study, scholarship, research or language learning purposes only