Home » B » Bo Kaspers Orkester »

Bo Kaspers Orkester - Ett Och Noll Tabs

Artists:  A B C D E F G H I J K L M N O P Q R S T U V W X Y Z # 

Ett Och Noll Tabs

(ver. 1) Click to play this song!
Bo Kaspers Orkester
|---------------|---------------|---------------|---------------|
|--4------------|---4-----------|--4------------|---------------|
|--3------1-----|---3-----1-----|--3-----1------|---3/4/3/1-----|
|--5------3-----|---5-----3-----|--5-----3------|------------3--|
|--3------------|-3-------------|--3------------|---------------|
|---------1-----|---------1-1---|--------1-1----|--1---------1--|

|---------1-----|---3-----------|---------------|---------------|
|--4------1-----|-----4-6-------|---------------|--2-2---2------|
|--3------1-----|---------5-3---|---------------|--1-1---1------|
|--5------------|---------------|--6---5-3------|--3-3---3------|
|--3------------|---3-----------|----6----------|--1-1-1-1------|
|---------1-----|---------------|---------------|---------------|

|---------------|----1---4------|--3------------|---------------|
|--4--4---4-----|----2---2------|--4--6--4---4--|---2------2----|
|--3--3---3-----|----1---1------|--3--3--3---3--|---1------1----|
|--5--5---5-----|---------------|-----5--5---5--|---3------3----|
|--3-3--3-------|--1---1--------|--3--3--3--3---|-1------1------|
|---------------|---------------|---------------|---------------|

|---------------|--1------4-----|-----------3---|
|--4----4----4--|--2------2-----|---------4-----|
|--3----3----3--|--1------1-----|-------3-------|
|--5----5----5--|---------------|-----5---------|
|--3--3----3----|-1-----1-------|---3-----------|
|---------------|---------------|---------------|
            
Submit corrections

↑ Back to top | Tablatures and chords for acoustic guitar and electric guitar, ukulele, drums are parodies/interpretations of the original songs. You may use it for private study, scholarship, research or language learning purposes only