» » »

Boehse Onkelz - Weit Weg Tabs

Artists:  A B C D E F G H I J K L M N O P Q R S T U V W X Y Z # 

Weit Weg Tabs

(ver. 1) Click to play this song!
Boehse Onkelz
 Rating:
2.7/5 (28 votes)

 Weit Weg  lessons Tabs too difficult? Try these video lessons and learn fast
 
                Tuning: Standard

Intro
(die Noten für das Zeug am anfang mit dem Wah-Wah-Pedal oder was auch immer hab ich nicht 
aufgeschrieben)

Die Töne für den Synthesizer sind A-E-D-C, der Oktavbereich wechselt immer.

Gitarre I
e|-------------------------------------------------------------------------|
B|-------------------------------------------------------------------------|
G|---------------------------------------------------------5-5-------------|
D|-------------------------------x-------------5---7-5-7-------7--x-7-10p7-|
A|-----------------------3-3-0---x-3------------------------------x--------|
E|-5------3------5---------------x---5-5--------------------------x--------|

Gitarre II
e|-------------------------------------------------------------------------|
B|-------------------------------------------------------------------------|
G|-------------------------------------------------------------------------|
D|-7-----(5)-----3---------------------7------(5)------3-------------------|
A|-7-----(5)-----3---------------------7------(5)------3-------------------|
E|-5-----(3)-----1---------------------5------(3)------1-------------------|


G I
e|----------------------------------------------------------------------------|
B|-------------13-12-----------13---------------------------------------------|
G|-9-----12----------12--14-------14------------------------------14-16-17-16-|
D|----------------------------------------------------------------------------|
A|--------------------------------------14--15-----14--10--12-----12-14-15-14-|
E|----------------------------------------------------------------------------|

G II
e|----------------------------------------------------------------------------|
B|----------------------------------------------------------------------------|
G|----------------------------------------------------------------------------|
D|-7-----(5)-----3---------------------7------(5)------3----------7--9--10-9--|
A|-7-----(5)-----3---------------------7------(5)------3----------7--9--10-9--|
E|-5-----(3)-----1---------------------5------(3)------1----------5--7--8--7--|


Strophe
G I
e|---------------------------------------------------------------------------|
B|---------------------------------------------------------------------------|
G|-14------------------------------------------------------------------------|
D|---------------------------------------------------------------------------|
A|-12------------------------------------------------------------------------|
E|---------------------------------------------------------------------------|

G II
e|-----------------------------------------------------------zum Schluss der-|
B|----------------------------------------------------------Strophe-eine-Art-|
G|-------------------------------------------------------Scr*peslide-oder-so-|
D|-7---------------------------------------------------\---------------------|
A|-7---------------------------------------------------\---------------------|
E|-5---------------------------------------------------\---------------------|


Refrain
e|--------------------------------------------------|
B|--------------------------------------------------|
G|--------------------------------------------------|
D|-7\ slide out-x-x-5-----5-5-3-----x-2-2---x-2-2---|
A|-7\-----------x-x-5-----5-5-3-----x-2-2---x-2-2---|
E|-5\-----------x-x-3-----3-3-1-----x-0-0---x-0-0---| 3x spielen
                          * *         *       *

e|--------------------------------------------------|
B|--------------------------------------------------|
G|--------------------------------------------------|
D|-7\ slide out-x-x-5-----5-5-3----/7-/9-/10-/9/7---|
A|-7\-----------x-x-5-----5-5-3---------------------|
E|-5\-----------x-x-3-----3-3-1----/5-/7-/8--/7/5---|

zweiter Teil vom Intro nochmal
Strophe
Refrain

Solo (Begleitung: A-G-F, alles 16tel, palm muted)                  ~~~~~~
e|-------12-10-------------------------x-x-------12-10-------------12----10-13-10----/13-x-|
B|--------------10---13----------------x-x---------------10---13-------------------------x-|
G|------------------------10----12-10\-x-x-----------------------------------------------x-|
D|-/14---------------------------------x-x-/14-------------------------------------------x-|
A|-------------------------------------x-x-----------------------------------------------x-|
E|-------------------------------------x-x-----------------------------------------------x-|

e|------------------------------------------------------------------------------------|
B|------------------------------------------------------------------------------------|
G|-10-10-10-10--------10---10---(10)--------------------------------------------------|
D|-10-10-10-10-x---10-10---10---(10)----10------------10----10h12-14-15--14--12--10---|
A|-------------x---12----------------12----12-(12)-12----12---------------------------|
E|-------------x----------------------------------------------------------------------|
                   *

(den Teil vom Solo vorm Breakdown hab ich noch nicht herausgefunden, aber och will ihn irgendwann 
noch hinzufügen)

Break

e|-------------------------------------------------------------|
B|-------------------------------------------------------------|
G|------14----14--17--16----12--17--16---10-10-----------------|
D|-...--------------------------------------------2-3--2-5-3---|
A|------12----12--15--14----10--15--14---8--8-----2-3--2-5-3---|
E|------------------------------------------------0-1--0-3-1---|


G I
e|-----------------------------------------------12-10-----------------------|
B|------------------------------------------------------13-12-10-----10------|
G|----------------------------------------------------------------12---------|
D|---------------------------------------------------------------------------|
A|---------------------------------------------------------------------------|
E|---------------------------------------------------------------------------|
G II
e|---------------------------------------------------------------------------|
B|---------------------------------------------------------------------------|
G|------14----14--17--16----12--17--16---10-10-------------------------------|
D|-...--------------------------------------------2--3---2--5--3-------------|
A|------12----12--15--14----10--15--14---8--8-----2--3---2--5--3-------------|
E|------------------------------------------------0--1---0--3--1-------------|

Refrain
zweiter Teil vom Intro
Breakdown
Synthesizer Outro (A-E-D-C)            
Submit corrections


        Weit Weg  lessons Hard to play? Try these video lessons and learn fast Weit Weg  lessons
        
↑ Back to top | Tablatures and chords for acoustic guitar and electric guitar, ukulele, drums are parodies/interpretations of the original songs. You may use it for private study, scholarship, research or language learning purposes only