» » »

Boehse Onkelz - Stunde Des Siegers Tabs

Artists:  A B C D E F G H I J K L M N O P Q R S T U V W X Y Z # 

Stunde Des Siegers Tabs

(ver. 1) Click to play this song!
Boehse Onkelz
 Rating:
3.4/5 (5 votes)

 Stunde Des Siegers lessons Tabs too difficult? Try these video lessons and learn fast
 
                BAND:   Böhse Onkelz


Riff1: 
E|-----3-3-2-2-----| 
B|-0-0---------3-3-| 
G|-----------------| 
D|-----------------| 
A|-----------------| 
E|-----------------| 

Riff2: 
E|----------------------------------------| 
B|----------------------------------------| 
G|----------------------------------------| 
D|-5-5--5-5--9-9--9-9--7-7--7-7--9-9--9-9-| 
A|-3-3--3-3--7-7--7-7--5-5--5-5--7-7--7-7-| 
E|----------------------------------------| 

Riff3: 
E|--------------------------------------------------------------------| 
B|--------------------------------------------------------------------| 
G|--------------------------------------------------------------------| 
D|-5--5-5--5--5-5--9--9-9--9--9-9--7--7-7--7--7-7--9--9-9--9--9-9-----| 
A|-3--3-3--3--3-3--7--7-7--7--7-7--5--5-5--5--5-5--7--7-7--7--7-7-----| 
E|--------------------------------------------------------------------| 

Riff4: 
E|---3-2---| 
B|-0-----3-| 
G|---------| 
D|---------| 
A|---------| 
E|---------| 

Chor: 
E|--------------------------------------------------------------------| 
B|--------------------------------------------------------------------| 
G|--------------------------------------------------------------------| 
D|-9-9-9-9-9-9-5-5-5-5-5-5-7-7-9---9-9-9-9-9-9-9-5-5-5-5-5-5-7-7-9----| 
A|-7-7-7-7-7-7-3-3-3-3-3-3-5-5-7---7-7-7-7-7-7-7-3-3-3-3-3-3-5-5-7----| 
E|--------------------------------------------------------------------| 

E|--------------------------------------------------------------------| 
B|--------------------------------------------------------------------| 
G|--------------------------------------------------------------------| 
D|-5-5-5-5-7-7-7--9-9-9-7-5---9-9-9-7-5---5-5-7-----------------------| 
A|-3-3-3-3-5-5-5--7-7-7-5-3---7-7-7-5-3---3-3-5-----------------------| 
E|--------------------------------------------------------------------| 

1: Riff1+Bass 
2: Riff1+Riff2 
3: Riff1+Riff2 
4: Riff3+Riff4 
5: Riff3+"abwechseln 2 x"Riff1+Riff4 
6: Chor: 
7: Solo 
8: Chor 
9: gleich wie 2 
10: gleich wie 5 
11: Chor 
12: Chor schneller spielen 

Solo fehlt leider
            
Submit corrections


        Stunde Des Siegers lessons Hard to play? Try these video lessons and learn fast Stunde Des Siegers lessons
        
↑ Back to top | Tablatures and chords for acoustic guitar and electric guitar, ukulele, drums are parodies/interpretations of the original songs. You may use it for private study, scholarship, research or language learning purposes only