» » »

Boehse Onkelz - Opa War Sturmfuehrer Bei Der Ss Tabs

Artists:  A B C D E F G H I J K L M N O P Q R S T U V W X Y Z # 

Opa War Sturmfuehrer Bei Der Ss Tabs

(ver. 1) Click to play this song!
Boehse Onkelz
 Rating:
4.2/5 (5 votes)

 Opa War Sturmfuehrer Bei Der Ss lessons Tabs too difficult? Try these video lessons and learn fast
 
                Also der Song ist einfach aber auch sau geil texte kann ich leider nicht dazuschreiben
da sie rechtsradikal sind aber egal. Musste ihn unter Onkelz Speichern weil er sonst
nicht angenomme worde wäre.


Tunning:Standart
Intro:
|------------------------------------------------------------|
|------------------------------------------------------------|
|-----9-9-9-9-9------9-9-9-9-9------9-9-9-9-9------9-9-9-9-9-|
|-----9-9-9-9-9------9-9-9-9-9------9-9-9-9-9------9-9-9-9-9-|
|-----7-7-7-7-7------7-7-7-7-7------7-7-7-7-7------7-7-7-7-7-|
|------------------------------------------------------------|
Verse:
P.M   . . . . . . . .    . . . . . . . .   . . . . . . . . .
|------------------------------------------------------------|
|------------------------------------------------------------|2x
|-----9-9-9-9-9-9-9-9----7-7-7-7-7-7-7-7----9-9-9-9-9-9-9-9--|
|-----9-9-9-9-9-9-9-9----7-7-7-7-7-7-7-7----9-9-9-9-9-9-9-9--|
|-----7-7-7-7-7-7-7-7----5-5-5-5-5-5-5-5----7-7-7-7-7-7-7-7--|
|------------------------------------------------------------|

Chorus:
|------------------------------------------------------------|
|------------------------------------------------------------|
|----9-9-9-9-9-9-9-9-----------------------------------------|
|----9-9-9-9-9-9-9-9----9-9-9-9-9-9-9-9----7-7-7-7-7-7-7-7---|
|----7-7-7-7-7-7-7-7----9-9-9-9-9-9-9-9----7-7-7-7-7-7-7-7---|
|-----------------------7-7-7-7-7-7-7-7----5-5-5-5-5-5-5-5---|

|------------------------------------------------------------|
|------------------------------------------------------------|
|----9-10-9--------------------------------------------------|
|----9-10-9--------------------------------------------------|
|----7--8-7--------------------------------------------------|



Order:
1x Intro
2x Verse
1x Chorus
----------
1x Intro                    
2x Verse                    
1x Chorus                   
----------                  
1x Intro                    
2x Verse                    
3x Chorus                   

Müssten normaler weise richtig sein habs aus dem lied rausgehört falls ihr noch andere
tabs habt immer her damit
            
Submit corrections


        Opa War Sturmfuehrer Bei Der Ss lessons Hard to play? Try these video lessons and learn fast Opa War Sturmfuehrer Bei Der Ss lessons
        
↑ Back to top | Tablatures and chords for acoustic guitar and electric guitar, ukulele, drums are parodies/interpretations of the original songs. You may use it for private study, scholarship, research or language learning purposes only