» » »

Boehse Onkelz - Keine Ist Wie Du Tabs

Artists:  A B C D E F G H I J K L M N O P Q R S T U V W X Y Z # 

Keine Ist Wie Du Tabs

(ver. 1) Click to play this song!
Boehse Onkelz
 Rating:
4/5 (4 votes)

 Keine Ist Wie Du lessons Tabs too difficult? Try these video lessons and learn fast
 
                Keine ist wie du

Intro:

3x
e|-------------------------------------|
h|-------------------------------------|
g|-------------------------------------|
D|-7--6--------------------------------|
A|-5--4---5-7-4---2---4-5-4---x-x------|
E|--------3-5-2---0---2-3-2---x-x------|

e|-------------------------------------|
h|-------------------------------------|
g|-------------------------------------|
D|-7--6--------------------------------|
A|-5--4---5-7-4---2~-~-~-~-~-~---------|
E|--------3-5-2---0~-~-~-~-~-~---------|


Pre-Verse:

e|-------------------------------------|
h|-------------------------------------|
g|-------------------------------------|
D|-10\9---------10\9---12---14---------|
A|-8-\7-7-7-7-*-8-\7---10---12---------|
E|------0-0-0-*------------------------|
PM      . . .

e|-------------------------------------|
h|-------------------------------------|
g|-------------------------------------|
D|-10\9---------10\9---12--------------|
A|-8-\7-7-7-7-*-8-\7---10---12---------|
E|------0-0-0-*-------------10---------|
PM      . . .

Verse:

4x
e|-------------------------------------------------|
h|-------------------------------------------------|
g|-------------------------------------------------|
D|-10\9--------------------------------------------|
A|-8-\7-------9/10-------9/10--10/12--12\10--10\9--|
E|-------0-0--7/8---0-0--7/8----8/10--10\8----8\7--|
PM       . .        . .
 
2x
e|-----------------------------------------|
h|-----------------------------------------|
g|-----------------------------------------|
D|-9---------------------------------------|
A|-9---9-9-9-9-9-9-9/10-10/12----12\10-10\-|
E|-7---7-7-7-7-7-7-7/8---8/10----10\8---8\-|
PM     . . . . . . 

2x (wieder...)
e|-------------------------------------------------|
h|-------------------------------------------------|
g|-------------------------------------------------|
D|-10\9--------------------------------------------|
A|-8-\7-------9/10-------9/10--10/12--12\10--10\9--|
E|-------0-0--7/8---0-0--7/8----8/10--10\8----8\7--|
PM       . .        . .

Refrain:


E |--------------------|
H |-12--7--9--5--------|
G |-12--7--9--5--------|
D |-10--5--7--3--------|
A |--------------------|
E |--------------------|

das Ganze wiederholen

Bridge (für Solo):

4x
e|-------------------------------------------------|
h|-------------------------------------------------|
g|-------------------------------------------------|
D|-10\9--------------------------------------------|
A|-8-\7-------9/10-------9/10--10/12--12\10--10\9--|
E|-------0-0--7/8---0-0--7/8----8/10--10\8----8\7--|
PM       . .        . .

Solo:

    8x      8x      8x      8x
e|-------|-------|--------|-------|
h|-5p3p0-|-7p5p0-|-10p8p0-|-7p5p0-|
g|-------|-------|--------|-------|
D|-------|-------|--------|-------|
A|-------|-------|--------|-------|
E|-------|-------|--------|-------|

   6X
e|-----------|
h|-15^(17)---|
g|-----------|  Tonleiter runter
D|-----------|  und den Teil wdh.
A|-----------|
E|-----------|

2x
e|-----------------------|
h|-----------------------|
g|-----------------------|
D|-10\9------------------|
A|-8-\7-------9/10-------|
E|-------0-0--7/8---0-0--|
PM       . .        . .

--> Refrain
--> Pre-Verse

2x
e|-----------------------------------------|
h|-----------------------------------------|
g|-----------------------------------------|
D|-9---------------------------------------|
A|-9---9-9-9-9-9-9-9/10-10/12----12\10-10\-|
E|-7---7-7-7-7-7-7-7/8---8/10----10\8---8\-|
PM     . . . . . . 

2x 
e|-------------------------------------------------|
h|-------------------------------------------------|
g|-------------------------------------------------|
D|-10\9--------------------------------------------|
A|-8-\7-------9/10-------9/10--10/12--12\10--10\9--|
E|-------0-0--7/8---0-0--7/8----8/10--10\8----8\7--|
PM       . .        . .

--> Refrain

Outro:

   2x                 4x           8x    
e|-----------------||-----------||-------||---------------|
h|-----------------||-----------||-------||---------------|
g|-----------------||-----------||-------||---------------|
D|-10\9------------||-10\9------||-10\9--||------4--5--4--|
A|-8-\7------------||-8-\7------||-8-\7--||-2----4--5--4--|
E|-------0-0-0-0-*-|| ------0-0-||-------||-0----2--3--2--|   
PM       . . . .            . . 
            
Submit corrections


        Keine Ist Wie Du lessons Hard to play? Try these video lessons and learn fast Keine Ist Wie Du lessons
        
↑ Back to top | Tablatures and chords for acoustic guitar and electric guitar, ukulele, drums are parodies/interpretations of the original songs. You may use it for private study, scholarship, research or language learning purposes only