» » »

Boehse Onkelz - Das Signum Des Verrats Tabs

Artists:  A B C D E F G H I J K L M N O P Q R S T U V W X Y Z # 

Das Signum Des Verrats Tabs

(ver. 1) Click to play this song!
Boehse Onkelz
 Rating:
4.2/5 (5 votes)

 Das Signum Des Verrats lessons Tabs too difficult? Try these video lessons and learn fast
 
                Band:		Böhse Onkelz
Album:		Böse Menschen, böse Lieder
Jahr:		1985
Mix:		Live Version - Vaya con Tioz 2005



(Gitarre einen Halbton tiefer stimmen)


Intro:
e|---------------------------------------------------------|
h|---------------------------------------------------------|
g|-----------------------------------------------15-15-----|
D|--5-3------7-7---7s-9-9---9s-12-12---12s-14-14-14-14-14--|
A|------5-3--5-5---5s-7-7---7s-10-10---10s-12-12-12-12-12--|
E|---------------------------------------------------------|

e|------------------------------------------------|
h|------------------------------------------------|
g|--------------------------------------15-15-----|
D|--7-7---7s-9-9---9s-12-12---12s-14-14-14-14-14--|
A|--5-5---5s-7-7---7s-10-10---10s-12-12-12-12-12--|
E|------------------------------------------------|


Verse:
e|----------------------------------------------------------------|
h|----------------------------------------------------------------|
g|----------------------------------------------------------------|
D|--7--7--7---5-3--------7--7--7----5-3-------7--7--7----5-3------|
A|--5--5--5-------5-3----5--5--5--------5-3---5--5--5--------5-3--|
E|----------------------------------------------------------------|

e|-----------------------------------------------------|
h|-----------------------------------------------------|
g|-----------------------------------------------------|
D|--7--7--7--7---9-9--12--9-9--12--9-9--12----5-3------|
A|--5--5--5--5---7-7--10--7-7--10--7-7--10--------5-3--|
E|-----------------------------------------------------|

e|------------------------------------------------------------------------|
B|------------------------------------------------------------------------|
G|------------------------------------------------------------------------|
D|--7--7--7--7---9-9--12--9-9--12--9-9--12----5-3-------7--7--7--5-3------|
A|--5--5--5--5---7-7--10--7-7--10--7-7--10--------5-3---5--5--5------5-3--|
E|------------------------------------------------------------------------|


Chorus: 
e|---------------------------------|
h|---------------------------------|
g|---------------------------------|
D|--7--7--7--7--12-12-12-12-12-14--|
A|--5--5--5--5--10-10-10-10-10-12--|
E|---------------------------------|


Solo:
e|--10-10-----10-10-----10-10-----10-10-----10-10-----10-10-----10-10-----10-10------------|
h|--10-10-----10-10-----10-10-----10-10-----10-10-----10-10-----10-10-----10-10------------|
g|--------12--------12--------12--------12--------12--------12--------12--------12-12b-12b-|
D|-----------------------------------------------------------------------------------------|
A|-----------------------------------------------------------------------------------------|
E|-----------------------------------------------------------------------------------------|

e|--13-10-13----10---------13-10-13----10--------------------------------------------------|
h|-----------13----13-10------------13----13-10--------------------------------------------|
g|-----------------------------------------------12-10-------------------------------------|
D|------------------------------------------------------12-10------------------------------|
A|------------------------------------------------------------12-10-8-----8-10b-8b---------|
E|---------------------------------------------------------------------10-----------10b----|

e|---------------------------------------------|
h|---------------------------------------10~~--|
g|-------------------10~----------10--12-------|
D|-------------10-12--------10-12--------------|
A|-----8-10-12-----------12--------------------|
E|--10-----------------------------------------|

e|-10------10------10------10------10------10------10------10------10--------|
h|----13b~----13b~----13b~----13b~----13b~----13b~----13b~----13b~----13b~~--|
g|---------------------------------------------------------------------------|
D|---------------------------------------------------------------------------|
A|---------------------------------------------------------------------------|
E|---------------------------------------------------------------------------|

e|-----------------------|
h|--13b-13b--13b~---13b~-|
g|--12b-12b--12b~---12b~-|
D|-----------------------|
A|-----------------------|
E|-----------------------|

e|-----10-13----10-13----10----------------------------------------------------------|
h|--13-------13-------13----13-10----13-10-------------------------------------------|
g|--------------------------------12-------12-10----12-10----------------------------|
D|-----------------------------------------------12-------12-10----10----------------|
A|--------------------------------------------------------------12----12-10-8b~------|
E|------------------------------------------------------------------------------10b--|

e|---------------------|
h|--13b~----13b~--13b~-|
g|--12b~----12b~--12b~-|
D|---------------------|
A|---------------------|
E|---------------------|

e|--10-------10-------10-------|
h|-----13b~-----13b~------13b~-|
g|-----------------------------|
D|-----------------------------|
A|-----------------------------|
E|-----------------------------|

e|-----10-13-10----10-----------------------|
h|--13----------13----13-10----13-10----10~-|
g|--------------------------12-------12-----|
D|------------------------------------------|
A|------------------------------------------|
E|------------------------------------------|

e|--------10-13-10----10----------------------------------------------------------------|
h|--13b~-----------13----13-10----13-10----10-------------------------------------------|
g|-----------------------------12-------12----12-10----10-------------------------------|
D|--------------------------------------------------12----12-10----12-------------------|
A|--------------------------------------------------------------12----10-12b-10b-8b-----|
E|----------------------------------------------------------------------------------10b-|

e|------------------------|
B|--13-13-13-13-13-13-15--|
G|--12-12-12-12-12-12-14--|
D|------------------------|
A|------------------------|
E|------------------------|
            
Submit corrections


        Das Signum Des Verrats lessons Hard to play? Try these video lessons and learn fast Das Signum Des Verrats lessons
        
↑ Back to top | Tablatures and chords for acoustic guitar and electric guitar, ukulele, drums are parodies/interpretations of the original songs. You may use it for private study, scholarship, research or language learning purposes only