Home » B » Bo Diddley »

Bo Diddley - Who Do You Love Tabs

Artists:  A B C D E F G H I J K L M N O P Q R S T U V W X Y Z # 

Who Do You Love Tabs

(ver. 1) Click to play this song!
Bo Diddley
Gtr I (E A D G B E) - 'Jody Williams - Electric Guitar'
Gtr II (E A D G B E) - 'Bo Diddley - Electric Guitar'


 Intro
  Q=224(8=s8)
  Ab7
 4/4
  Gtr I
  H    H      H    H      H    Q  Q    W               H    Q  Q
|-----------|-----------|------------|---------------|------------|
|-----------|-----------|------------|---------------|------------|
|-----------|-----------|------------|---------------|------------|
|-----------|-3----5----|-6----4-----|---------------|-6----4-----|
|------6----|-----------|---------6--|---------------|---------6--|
|-----------|-----------|------------|-4-------------|------------|
|
| Gtr II
| W           W           H    Q  Q    E E q  E E q    H    Q  Q
|-----------|-----------|------------|---------------|------------|
|-----------|-----------|------------|---------------|------------|
|-----------|-----------|-5----3-----|-x-x-5--x-x-5--|-5----3--5--|
|-----------|-----------|---------6--|-x-x-6--x-x-6--|------------|
|-----------|-----------|------------|---------------|------------|
|-----------|-----------|------------|---------------|------------|


                         |--3--|
  W               q   q  E E   E E E   E E Q   Q   E E
|---------------|--------------------|-----------------|
|---------------|--------------------|-----------------|
|---------------|--------------------|-----------------|
|---------------|-6---6--4h6p==4---4-|---6-----------6-|
|---------------|----------------6---|-----------------|
|-4-------------|--------------------|-----------------|
|
| E E q  E E q    E E q  E   E   q     E E E E Q   E E
|---------------|--------------------|---------8\--x-x-|
|---------------|--------------------|---------9\--x-x-|
|-x-x-5--x-x-5--|-x-x-5--x---x---5---|-x-x-5-x-8\--x-x-|
|-x-x-6--x-x-6--|-x-x-6--x---x---6---|-x-x-6-x---------|
|---------------|--------------------|-----------------|
|---------------|--------------------|-----------------|


  E E Q  q   E E   H       E  E E E
|----------------|---------------------|
|----------------|---------------------|
|----------------|---------------------|
|-4-6----4-----6-|------------6---6----|
|------------6---|---------------------|
|----------------|---------------------|
|
| E E q  E E q     E E E E Q    E E
|----------------|---------8\---x-x----|
|----------------|---------9\---x-x----|
|-x-x-5--x-x-5---|-x-x-5-x-8\---x-x----|
|-x-x-6--x-x-6---|-x-x-6-x-------------|
|----------------|---------------------|
|----------------|---------------------|


  E E E E    +E  +E  E E   Q   Q   Q   +E      E
|------------------------|-----------------------|
|------------------------|-----7---9---(9)b9.5---|
|-4-----6b8==(6)r(6)p4-6s|=8---------------------|
|---6--------------------|-----------------------|
|------------------------|-----------------------|
|------------------------|-----------------------|
|
| E E q       E   E  q     E E E E Q    E      E
|------------------------|---------8\---x------x-|
|------------------------|---------9\---x------x-|
|-x-x-5-------x---x--5---|-x-x-5-x-8\---x------x-|
|-x-x-6-------x---x--6---|-x-x-6-x---------------|
|------------------------|-----------------------|
|------------------------|-----------------------|


  E E    +S  +S  E S S S S +Q     Q   Q  Q   Q
|-------------------------------|---------------||
|-------------------------------|---------------||
|---6b8==(6)r(6)p4-6p4---4-(4)--|---------------||
|----------------------6--------|-6------3---5--||
|-------------------------------|-----6---------||
|-------------------------------|---------------||
|
| E E     q        E   E    q     E E q  E E q
|-------------------------------|---------------||
|-------------------------------|---------------||
|-x-x-----5--------x---x----5---|-x-x-5--x-x-5--||
|-x-x-----6--------x---x----6---|-x-x-6--x-x-6--||
|-------------------------------|---------------||
|-------------------------------|---------------||


 1st Verse
  Ab7
  H      Q   Q    W               H      Q   Q    W
|---------------|---------------|---------------|----------------|
|---------------|---------------|---------------|----------------|
|---------------|---------------|---------------|----------------|
|-6------4------|---------------|-6------4------|----------------|
|------------6--|---------------|------------6--|----------------|
|---------------|-4-------------|---------------|-4--------------|
|
| E E q  E E q    E E q  E E q    E E q  E E q    E E q  E E q
|---------------|---------------|---------------|----------------|
|---------------|---------------|---------------|----------------|
|-x-x-5--x-x-5--|-x-x-5--x-x-5--|-x-x-5--x-x-5--|-x-x-5--x-x-5---|
|-x-x-6--x-x-6--|-x-x-6--x-x-6--|-x-x-6--x-x-6--|-x-x-6--x-x-6---|
|---------------|---------------|---------------|----------------|
|---------------|---------------|---------------|----------------|


                                                             Db/Ab
  H      Q   Q    W               H      Q   Q    W
|---------------|---------------|---------------|----------------|
|---------------|---------------|---------------|----------------|
|---------------|---------------|---------------|----------------|
|-6------4------|---------------|-6------4------|----------------|
|------------6--|---------------|------------6--|----------------|
|---------------|-4-------------|---------------|-4--------------|
|
| E E q  E E q    E E q  E E q    E E q  E E q    E E q  E E q
|---------------|---------------|---------------|----------------|
|---------------|---------------|---------------|------------6---|
|-x-x-5--x-x-5--|-x-x-5--x-x-5--|-x-x-5--x-x-5--|-x-x-5--x-x-6---|
|-x-x-6--x-x-6--|-x-x-6--x-x-6--|-x-x-6--x-x-6--|-x-x-6--x-x-6---|
|---------------|---------------|---------------|----------------|
|---------------|---------------|---------------|----------------|


  Ab7                        Db/AbAb7                        Db/Ab
  H      Q   Q    W               H      Q   Q    W
|---------------|---------------|---------------|----------------|
|---------------|---------------|---------------|----------------|
|---------------|---------------|---------------|----------------|
|-6------4------|---------------|-6------4------|----------------|
|------------6--|---------------|------------6--|----------------|
|---------------|-4-------------|---------------|-4--------------|
|
| E E q  E E q    E E q  E E q    E E q  E E q    E E q  E E q
|---------------|---------------|---------------|----------------|
|---------------|------------6--|---------------|------------6---|
|-x-x-5--x-x-5--|-x-x-5--x-x-6--|-x-x-5--x-x-5--|-x-x-5--x-x-6---|
|-x-x-6--x-x-6--|-x-x-6--x-x-6--|-x-x-6--x-x-6--|-x-x-6--x-x-6---|
|---------------|---------------|---------------|----------------|
|---------------|---------------|---------------|----------------|


  Ab7                        Db/AbAb7                        Db/Ab
  H      Q   Q    W               H      Q   Q    W
|---------------|---------------|---------------|----------------|
|---------------|---------------|---------------|----------------|
|---------------|---------------|---------------|----------------|
|-6------4------|---------------|-6------4------|----------------|
|------------6--|---------------|------------6--|----------------|
|---------------|-4-------------|---------------|-4--------------|
|
| E E q  E E q    E E q  E E q    E E q  E E q    E E q  E E q
|---------------|---------------|---------------|----------------|
|---------------|------------6--|---------------|------------6---|
|-x-x-5--x-x-5--|-x-x-5--x-x-6--|-x-x-5--x-x-5--|-x-x-5--x-x-6---|
|-x-x-6--x-x-6--|-x-x-6--x-x-6--|-x-x-6--x-x-6--|-x-x-6--x-x-6---|
|---------------|---------------|---------------|----------------|
|---------------|---------------|---------------|----------------|


  Ab7                        Db/AbAb7                        Db/Ab
  H      Q   Q    W               H      Q   Q    W
|---------------|---------------|---------------|----------------|
|---------------|---------------|---------------|----------------|
|---------------|---------------|---------------|----------------|
|-6------4------|---------------|-6------4------|----------------|
|------------6--|---------------|------------6--|----------------|
|---------------|-4-------------|---------------|-4--------------|
|
| E E q  E E q    E E q  E E q    E E q  E E q    E E q  E E q
|---------------|---------------|---------------|----------------|
|---------------|------------6--|---------------|------------6---|
|-x-x-5--x-x-5--|-x-x-5--x-x-6--|-x-x-5--x-x-5--|-x-x-5--x-x-6---|
|-x-x-6--x-x-6--|-x-x-6--x-x-6--|-x-x-6--x-x-6--|-x-x-6--x-x-6---|
|---------------|---------------|---------------|----------------|
|---------------|---------------|---------------|----------------|


                                  Chorus
  Ab7                        Db/Ab Ab7
  H      Q   Q    W                H      Q   Q    Q   E E Q      Q
|---------------|---------------||---------------|---------7b7.5-------|
|---------------|---------------||---------------|-----9-9-------------|
|---------------|---------------||---------------|---------------------|
|-6------4------|---------------||-6------4------|---------------------|
|------------6--|---------------||------------6--|---------------------|
|---------------|-4-------------||---------------|-4-------------------|
|
| E E q  E E q    E E q  E E q     E E q  E E q    E E E E Q      E E
|---------------|---------------||---------------|---------8\-----x-x--|
|---------------|------------6--||---------------|---------9\-----x-x--|
|-x-x-5--x-x-5--|-x-x-5--x-x-6--||-x-x-5--x-x-5--|-x-x-5-x-8\-----x-x--|
|-x-x-6--x-x-6--|-x-x-6--x-x-6--||-x-x-6--x-x-6--|-x-x-6-x-------------|
|---------------|---------------||---------------|---------------------|
|---------------|---------------||---------------|---------------------|


  H      Q   Q    Q   E E Q      Q     H      Q   Q    Q   E E Q      Q
|---------------|---------7b7.5------|---------------|---------7b7.5-------|
|---------------|-----9-9------------|---------------|-----9-9-------------|
|---------------|--------------------|---------------|---------------------|
|-6------4------|--------------------|-6------4------|---------------------|
|------------6--|--------------------|------------6--|---------------------|
|---------------|-4------------------|---------------|-4-------------------|
|
| E E q  E E q    E E E E Q      E E   E E q  E E q    E E E E Q      E E
|---------------|---------8\-----x-x-|---------------|---------8\-----x-x--|
|---------------|---------9\-----x-x-|---------------|---------9\-----x-x--|
|-x-x-5--x-x-5--|-x-x-5-x-8\-----x-x-|-x-x-5--x-x-5--|-x-x-5-x-8\-----x-x--|
|-x-x-6--x-x-6--|-x-x-6-x------------|-x-x-6--x-x-6--|-x-x-6-x-------------|
|---------------|--------------------|---------------|---------------------|
|---------------|--------------------|---------------|---------------------|


  H      Q   Q    Q   E E Q      Q     H      Q   Q    Q   E E Q      Q
|---------------|---------7b7.5------|---------------|---------7b7.5-------||
|---------------|-----9-9------------|---------------|-----9-9-------------||
|---------------|--------------------|---------------|---------------------||
|-6------4------|--------------------|-6------4------|---------------------||
|------------6--|--------------------|------------6--|---------------------||
|---------------|-4------------------|---------------|-4-------------------||
|
| E E q  E E q    E E E E Q      E E   E E q  E E q    E E E E Q      E E
|---------------|---------8\-----x-x-|---------------|---------8\-----x-x--||
|---------------|---------9\-----x-x-|---------------|---------9\-----x-x--||
|-x-x-5--x-x-5--|-x-x-5-x-8\-----x-x-|-x-x-5--x-x-5--|-x-x-5-x-8\-----x-x--||
|-x-x-6--x-x-6--|-x-x-6-x------------|-x-x-6--x-x-6--|-x-x-6-x-------------||
|---------------|--------------------|---------------|---------------------||
|---------------|--------------------|---------------|---------------------||


   2nd & 3rd Verses
    H      Q   Q    W               H      Q   Q    W
||----------------|---------------|---------------|---------------||
||o---------------|---------------|---------------|---------------||
||----------------|---------------|---------------|---------------||
||--6------4------|---------------|-6------4------|---------------||
||o------------6--|---------------|------------6--|---------------||
||----------------|-4-------------|---------------|-4-------------||
|
|   E E q  E E q    E E q  E E q    E E q  E E q    E E q  E E q
||----------------|---------------|---------------|---------------||
||o---------------|---------------|---------------|---------------||
||--x-x-5--x-x-5--|-x-x-5--x-x-5--|-x-x-5--x-x-5--|-x-x-5--x-x-5--||
||--x-x-6--x-x-6--|-x-x-6--x-x-6--|-x-x-6--x-x-6--|-x-x-6--x-x-6--||
||o---------------|---------------|---------------|---------------||
||----------------|---------------|---------------|---------------||


 Chorus
  Ab7
  H      Q   Q    Q   E E Q      Q     H      Q   Q    Q   E E Q      Q
|---------------|---------7b7.5------|---------------|---------7b7.5-------|
|---------------|-----9-9------------|---------------|-----9-9-------------|
|---------------|--------------------|---------------|---------------------|
|-6------4------|--------------------|-6------4------|---------------------|
|------------6--|--------------------|------------6--|---------------------|
|---------------|-4------------------|---------------|-4-------------------|
|
| E E q  E E q    E E E E Q      E E   E E q  E E q    E E E E Q      E E
|---------------|---------8\-----x-x-|---------------|---------8\-----x-x--|
|---------------|---------9\-----x-x-|---------------|---------9\-----x-x--|
|-x-x-5--x-x-5--|-x-x-5-x-8\-----x-x-|-x-x-5--x-x-5--|-x-x-5-x-8\-----x-x--|
|-x-x-6--x-x-6--|-x-x-6-x------------|-x-x-6--x-x-6--|-x-x-6-x-------------|
|---------------|--------------------|---------------|---------------------|
|---------------|--------------------|---------------|---------------------|


  H      Q   Q    Q   E E Q      Q     H      Q   Q    Q   E E Q      Q
|---------------|---------7b7.5------|---------------|---------7b7.5--------||
|---------------|-----9-9------------|---------------|-----9-9-------------o||
|---------------|--------------------|---------------|----------------------||
|-6------4------|--------------------|-6------4------|----------------------||
|------------6--|--------------------|------------6--|---------------------o||
|---------------|-4------------------|---------------|-4--------------------||
|
| E E q  E E q    E E E E Q      E E   E E q  E E q    E E E E Q      E E
|---------------|---------8\-----x-x-|---------------|---------8\-----x-x---||
|---------------|---------9\-----x-x-|---------------|---------9\-----x-x--o||
|-x-x-5--x-x-5--|-x-x-5-x-8\-----x-x-|-x-x-5--x-x-5--|-x-x-5-x-8\-----x-x---||
|-x-x-6--x-x-6--|-x-x-6-x------------|-x-x-6--x-x-6--|-x-x-6-x--------------||
|---------------|--------------------|---------------|---------------------o||
|---------------|--------------------|---------------|----------------------||


 Guitar Solo
  Ab7
  H      Q   Q    W                 E E E E E E E E   E E Q   Q   E E
|---------------|-----------------|-----------------|------------------|
|---------------|-----------------|-----------------|------------------|
|---------------|-----------------|-----------------|------------------|
|-6------4------|-----------------|-4-6---4-------4-|---6-----------6--|
|------------6--|-----------------|-----------6-----|------------------|
|---------------|-4---------------|-----------------|------------------|
|
| E E q  E E q    E E E E Q   E E   E E q   E E q     E E E E Q   E E
|---------------|---------8\--x-x-|-----------------|---------8\--x-x--|
|---------------|---------9\--x-x-|-----------------|---------9\--x-x--|
|-x-x-5--x-x-5--|-x-x-5-x-8\--x-x-|-x-x-5---x-x-5---|-x-x-5-x-8\--x-x--|
|-x-x-6--x-x-6--|-x-x-6-x---------|-x-x-6---x-x-6---|-x-x-6-x----------|
|---------------|-----------------|-----------------|------------------|
|---------------|-----------------|-----------------|------------------|


  E E Q  E E E E   H       E  E E E
|----------------|------------------|
|----------------|------------------|
|----------------|------------------|
|-4-6----4-----6-|------------6---6-|
|------------6---|------------------|
|----------------|------------------|
|
| E E q  E E q     E E E E Q    E E
|----------------|---------8\---x-x-|
|----------------|---------9\---x-x-|
|-x-x-5--x-x-5---|-x-x-5-x-8\---x-x-|
|-x-x-6--x-x-6---|-x-x-6-x----------|
|----------------|------------------|
|----------------|------------------|


  E E E E    +Q    +E   E      +E  +E  E E E  E   +E  E
|----------------------------|------------------------4--|
|----------------------------|---------------------------|
|-4-----6b8==(6)---(6)r-6b8==|=(6)r(6)p4---4--6b8-(6)----|
|---6------------------------|-----------6---------------|
|----------------------------|---------------------------|
|----------------------------|---------------------------|
|
| E E q       E  E  q           E   E  E E Q       E  E
|----------------------------|-------------8\------x--x--|
|----------------------------|-------------9\------x--x--|
|-x-x-5-------x--x--5--------|--x---x--5-x-8\------x--x--|
|-x-x-6-------x--x--6--------|--x---x--6-x---------------|
|----------------------------|---------------------------|
|----------------------------|---------------------------|


  Q      +E   E E E    +E  +E    E E E E E  E E E
|-------------4----------------|----------------4-|
|-7b9====(7)r---4--------------|-------4-6p=4-6---|
|-----------------6b8==(6)r(6)p|=4----------------|
|------------------------------|---6--------------|
|------------------------------|------------------|
|------------------------------|------------------|
|
| E    E  q     E E     q        E E E E Q    E E
|------------------------------|---------8\---x-x-|
|------------------------------|---------9\---x-x-|
|-x----x--5-----x-x-----5------|-x-x-5-x-8\---x-x-|
|-x----x--6-----x-x-----6------|-x-x-6-x----------|
|------------------------------|------------------|
|------------------------------|------------------|


  Q   Q  Q   E E     Q   E E E  E E E
|-4------4-----6b8-|-------------------|
|------------------|-------4-6--4-6----|
|------------------|-------------------|
|------------------|-------------------|
|------------------|-------------------|
|------------------|-------------------|
|
| E E q  E E q       E E E E Q    E E
|------------------|---------8\---x-x--|
|------------------|---------9\---x-x--|
|-x-x-5--x-x-5-----|-x-x-5-x-8\---x-x--|
|-x-x-6--x-x-6-----|-x-x-6-x-----------|
|------------------|-------------------|
|------------------|-------------------|


  Q   Q  Q   E E       E E E E     E  E E  E
|-4------4-----6b6.5-|---4---7b7.5----4---/9b11-|
|--------------------|--------------------------|
|--------------------|--------------------------|
|--------------------|--------------------------|
|--------------------|--------------------------|
|--------------------|--------------------------|
|
| E E q  E E q         E E E E     Q    E  E
|--------------------|-------------8\---x--x----|
|--------------------|-------------9\---x--x----|
|-x-x-5--x-x-5-------|-x-x-5-x-----8\---x--x----|
|-x-x-6--x-x-6-------|-x-x-6-x------------------|
|--------------------|--------------------------|
|--------------------|--------------------------|


  +H       E E E E       Q   E E   +E  E E E
|-(9)------9p7---7b7.5-|----------------------|
|--------------9-------|---------------4-6----|
|----------------------|-------6b8-(6)--------|
|----------------------|----------------------|
|----------------------|----------------------|
|----------------------|----------------------|
|
|  E  E q  E E q         E E E E    Q    E E
|----------------------|------------8\---x-x--|
|----------------------|------------9\---x-x--|
|--x--x-5--x-x-5-------|-x-x-5-x----8\---x-x--|
|--x--x-6--x-x-6-------|-x-x-6-x--------------|
|----------------------|----------------------|
|----------------------|----------------------|


  Q   Q  E E E E   H       E  E E E
|-4------------6-|------------------|
|--------6-4-----|------------4-6---|
|----------------|------------------|
|----------------|------------------|
|----------------|------------------|
|----------------|------------------|
|
| E E q  E E q     E E E E Q    E E
|----------------|---------8\---x-x-|
|----------------|---------9\---x-x-|
|-x-x-5--x-x-5---|-x-x-5-x-8\---x-x-|
|-x-x-6--x-x-6---|-x-x-6-x----------|
|----------------|------------------|
|----------------|------------------|


           |--3--|                 |--3--|
  H        E E   E E E      +Q     E E   E E  E    +Q
|-6b7------4h6p==4---6b7==|=(6)r---4h6p==4----6b7==(6)r----|
|------------------6------|----------------6---------------|
|-------------------------|--------------------------------|
|-------------------------|--------------------------------|
|-------------------------|--------------------------------|
|-------------------------|--------------------------------|
|
| E   E q  E   E   q         E   E E   E   Q        E   E
|-------------------------|----------------8\-------x---x--|
|-------------------------|----------------9\-------x---x--|
|-x---x-5--x---x---5------|--x---x-5---x---8\-------x---x--|
|-x---x-6--x---x---6------|--x---x-6---x-------------------|
|-------------------------|--------------------------------|
|-------------------------|--------------------------------|


  |--3--|
  E E   E E E E    +E  +Q      E E Q   E  E   E E
|-4h6p==4-----6b7==(6)-(6)r--|-4----------------4-|
|---------6------------------|---4------------4---|
|----------------------------|------------6b8-----|
|----------------------------|--------------------|
|----------------------------|--------------------|
|----------------------------|--------------------|
|
| E   E   q   E     E   q      E E E E Q      E E
|----------------------------|---------8\-----x-x-|
|----------------------------|---------9\-----x-x-|
|-x---x---5---x-----x---5----|-x-x-5-x-8\-----x-x-|
|-x---x---6---x-----x---6----|-x-x-6-x------------|
|----------------------------|--------------------|
|----------------------------|--------------------|


  H      E E E E   E E E E E  E E E
|----------------|-------------------|
|-7--------------|-------------------|
|--------7-----7-|---6-4---6p=4------|
|----------6-----|-------6------6----|
|----------------|-------------------|
|----------------|-------------------|
|
| E E q  E E q     E E E E Q    E E
|----------------|---------8\---x-x--|
|----------------|---------9\---x-x--|
|-x-x-5--x-x-5---|-x-x-5-x-8\---x-x--|
|-x-x-6--x-x-6---|-x-x-6-x-----------|
|----------------|-------------------|
|----------------|-------------------|


                                      Db/AbAb7                        Db/Ab
  Q      +E  +E  E E E E   E E Q  Q   Q    H      Q   Q    W
|------------------------|---------------|---------------|----------------||
|------------------------|---------------|---------------|----------------||
|-6b8====(6)r(6)-4-------|---------------|---------------|----------------||
|------------------6---6-|--------3---5--|-6------4------|----------------||
|------------------------|---6-6---------|------------6--|----------------||
|------------------------|---------------|---------------|-4--------------||
|
| E    E  q      E E q     E E q  E E q    E E q  E E q    E E q  E E q
|------------------------|---------------|---------------|----------------||
|------------------------|------------6--|---------------|------------6---||
|-x----x--5------x-x-5---|-x-x-5--x-x-6--|-x-x-5--x-x-5--|-x-x-5--x-x-6---||
|-x----x--6------x-x-6---|-x-x-6--x-x-6--|-x-x-6--x-x-6--|-x-x-6--x-x-6---||
|------------------------|---------------|---------------|----------------||
|------------------------|---------------|---------------|----------------||


 Pre-Verse
  Ab7                        Db/AbAb7                        Db/Ab
  H      Q   Q    W               H      Q   Q    W
|---------------|---------------|---------------|----------------|
|---------------|---------------|---------------|----------------|
|---------------|---------------|---------------|----------------|
|-6------4------|---------------|-6------4------|----------------|
|------------6--|---------------|------------6--|----------------|
|---------------|-4-------------|---------------|-4--------------|
|
| E E q  E E q    E E q  E E q    E E q  E E q    E E q  E E q
|---------------|---------------|---------------|----------------|
|---------------|------------6--|---------------|------------6---|
|-x-x-5--x-x-5--|-x-x-5--x-x-6--|-x-x-5--x-x-5--|-x-x-5--x-x-6---|
|-x-x-6--x-x-6--|-x-x-6--x-x-6--|-x-x-6--x-x-6--|-x-x-6--x-x-6---|
|---------------|---------------|---------------|----------------|
|---------------|---------------|---------------|----------------|


   4th & 5th Verses
    Ab7                        Db/AbAb7                        Db/Ab
    H      Q   Q    W               H      Q   Q    Q   Q  Q   Q
||----------------|---------------|---------------|---------------||
||o---------------|---------------|---------------|---------------||
||----------------|---------------|---------------|---------------||
||--6------4------|---------------|-6------4------|--------3---5--||
||o------------6--|---------------|------------6--|-----6---------||
||----------------|-4-------------|---------------|-4-------------||
|
|   E E q  E E q    E E q  E E q    E E q  E E q    E E q  E E q
||----------------|---------------|---------------|---------------||
||o---------------|------------6--|---------------|------------6--||
||--x-x-5--x-x-5--|-x-x-5--x-x-6--|-x-x-5--x-x-5--|-x-x-5--x-x-6--||
||--x-x-6--x-x-6--|-x-x-6--x-x-6--|-x-x-6--x-x-6--|-x-x-6--x-x-6--||
||o---------------|---------------|---------------|---------------||
||----------------|---------------|---------------|---------------||


 Chorus
  Ab7
  H      Q   Q    Q   E E Q      Q     H      Q   Q    Q   E E Q      Q
|---------------|---------7b7.5------|---------------|---------7b7.5-------|
|---------------|-----9-9------------|---------------|-----9-9-------------|
|---------------|--------------------|---------------|---------------------|
|-6------4------|--------------------|-6------4------|---------------------|
|------------6--|--------------------|------------6--|---------------------|
|---------------|-4------------------|---------------|-4-------------------|
|
| E E q  E E q    E E E E Q      E E   E E q  E E q    E E E E Q      E E
|---------------|---------8\-----x-x-|---------------|---------8\-----x-x--|
|---------------|---------9\-----x-x-|---------------|---------9\-----x-x--|
|-x-x-5--x-x-5--|-x-x-5-x-8\-----x-x-|-x-x-5--x-x-5--|-x-x-5-x-8\-----x-x--|
|-x-x-6--x-x-6--|-x-x-6-x------------|-x-x-6--x-x-6--|-x-x-6-x-------------|
|---------------|--------------------|---------------|---------------------|
|---------------|--------------------|---------------|---------------------|


  H      Q   Q    Q   E E Q      Q     H      Q   Q    Q   E E Q      Q
|---------------|---------7b7.5------|---------------|---------7b7.5--------||
|---------------|-----9-9------------|---------------|-----9-9-------------o||
|---------------|--------------------|---------------|----------------------||
|-6------4------|--------------------|-6------4------|----------------------||
|------------6--|--------------------|------------6--|---------------------o||
|---------------|-4------------------|---------------|-4--------------------||
|
| E E q  E E q    E E E E Q      E E   E E q  E E q    E E E E Q      E E
|---------------|---------8\-----x-x-|---------------|---------8\-----x-x---||
|---------------|---------9\-----x-x-|---------------|---------9\-----x-x--o||
|-x-x-5--x-x-5--|-x-x-5-x-8\-----x-x-|-x-x-5--x-x-5--|-x-x-5-x-8\-----x-x---||
|-x-x-6--x-x-6--|-x-x-6-x------------|-x-x-6--x-x-6--|-x-x-6-x--------------||
|---------------|--------------------|---------------|---------------------o||
|---------------|--------------------|---------------|----------------------||


 Outro
  Ab7
         |--3--|
  Q   Q  E E   E E E   E E Q   Q   E E   E E Q  q   E E   H       E  E E E
|--------------------|-----------------|----------------|-------------------|
|--------------------|-----------------|----------------|-------------------|
|--------------------|-----------------|----------------|-------------------|
|-6---6--4h6p==4---4-|---6-------------|-4-6----4-----6-|------------6---6--|
|----------------6---|---------------6-|------------6---|-------------------|
|--------------------|-----------------|----------------|-------------------|
|
| E E q  E   E   q     E E E E Q   E E   E E q  E E q     E E E E Q    E E
|--------------------|---------8\--x-x-|----------------|---------8\---x-x--|
|--------------------|---------9\--x-x-|----------------|---------9\---x-x--|
|-x-x-5--x---x---5---|-x-x-5-x-8\--x-x-|-x-x-5--x-x-5---|-x-x-5-x-8\---x-x--|
|-x-x-6--x---x---6---|-x-x-6-x---------|-x-x-6--x-x-6---|-x-x-6-x-----------|
|--------------------|-----------------|----------------|-------------------|
|--------------------|-----------------|----------------|-------------------|


  E E E E    +E  +E  E E   Q   Q   Q.       E
|------------------------|--------------------|
|------------------------|-----7---9b9.5------|
|-4-----6b8==(6)r(6)p4-6s|=8------------------|
|---6--------------------|--------------------|
|------------------------|--------------------|
|------------------------|--------------------|
|
| E E q       E   E  q     E E E E Q      E E
|------------------------|---------8\-----x-x-|
|------------------------|---------9\-----x-x-|
|-x-x-5-------x---x--5---|-x-x-5-x-8\-----x-x-|
|-x-x-6-------x---x--6---|-x-x-6-x------------|
|------------------------|--------------------|
|------------------------|--------------------|


  E E    +S  +S  E S S S S +Q     Q   Q   Q   Q
|-------------------------------|-----------------*|
|-------------------------------|-----------------*|
|---6b8==(6)r(6)p4-6p4---4-(4)--|-----------------*|
|----------------------6--------|-6-------3---5---*|
|-------------------------------|-----6-----------*|
|-------------------------------|-----------------*|
|
| E E     q        E   E    q     E E E E Q   E E
|-------------------------------|---------8\--x-x-*|
|-------------------------------|---------9\--x-x-*|
|-x-x-----5--------x---x----5---|-x-x-5-x-8\--x-x-*|
|-x-x-----6--------x---x----6---|-x-x-6-x---------*|
|-------------------------------|-----------------*|
|-------------------------------|-----------------*|

            
Submit corrections

↑ Back to top | Tablatures and chords for acoustic guitar and electric guitar, ukulele, drums are parodies/interpretations of the original songs. You may use it for private study, scholarship, research or language learning purposes only