Home » B » Bo Deans »

Bo Deans - Hearing Tabs

Artists:  A B C D E F G H I J K L M N O P Q R S T U V W X Y Z # 

Hearing Tabs

(ver. 1) Click to play this song!
Bo Deans
 Rating:
4/5 (4 votes)
                The Bodeans - Hearing


Capo on 3rd fret I believe. You can also palm mute to make it sound like the studio 
On the x's I think it sounds better if you don't actually strum, but instead stop the sound 
the previous strum.

These are all 8th notes and I put the beats on the first measure as an example.

 Fmaj7/C
|--------------------------------|--------------------------------|
|1---1---x---1---1---1---1---1---|1---1---x---1---1---1---1---1---|
|2---2---x---2---2---2---0---0---|2---2---x---2---2---2---0---0---|
|3---3---x---3---3---3---3---3---|3---3---x---3---3---3---3---3---|
|3---3---x---3---3---3---3---3---|3---3---x---3---3---3---3---3---|
|--------------------------------|--------------------------------|
 1       2       3       4

 Cmaj/G
|--------------------------------|--------------------------------|
|1---1---x---1---1---1---1---1---|1---1---x---1---1---1---1---1---|
|0---0---x---0---0---0---0---0---|0---0---x---0---0---0---0---0---|
|2---2---x---2---2---2---0---0---|2---2---x---2---2---2---0---0---|
|3---3---x---3---3---3---3---3---|3---3---x---3---3---3---3---3---|
|3---3---x---3---3---3---3---3---|3---3---x---3---3---3---3---3---|


This is pretty much what is played throughout the whole song. Enjoy!
            
Submit corrections

↑ Back to top | Tablatures and chords for acoustic guitar and electric guitar, ukulele, drums are parodies/interpretations of the original songs. You may use it for private study, scholarship, research or language learning purposes only