Home » B » Bob Dylan »

Bob Dylan - Rainy Day Woman 12 And 35 Bass

Artists:  A B C D E F G H I J K L M N O P Q R S T U V W X Y Z # 

Rainy Day Woman 12 And 35 Bass

(ver. 1) Click to play this song!
Bob Dylan
Intro:  (Drum Start 2 bars)
 
G|-------------------------------------------------------------------|
D|-------------------------------------------------8-----8------8----|
A|-8-----8-----8-----8-----8-----8-----8-----8--------8------8-----8-|
E|----8-----8-----8-----8-----8-----8-----8-----8--------------------|
 
G|---------------------------------------------------------------|
D|-8------------------------------10------10------10------10-----|
A|----8---8-----8-----8-----8---------10------10------10------10-|
E|-----------8-----8-----8-----8---------------------------------|
 
G|------------------------|
D|------------------------|
A|-8-----8-----8-----5--6-|
E|----8-----8-----8-------|
 
Verses 1, 2 & 3:
G|-----------------------------------------------------------------------|
D|-----------------------------------------------------8-----8------8----|
A|-8-----8-----8-----8-------8-----8-----8-----8----------8------8-----8-|
E|----8-----8-----8-----8-8-----8-----8-----8-----8-8--------------------|
 
G|---------------------------------------------------------------------|
D|-8---------------------------------10------10------10------10--------|
A|----8-8---8-----8-----8-----8----------10------10------10------10-10-|
E|-------------8-----8-----8-----8-8-----------------------------------|
 
G|------------------------|
D|------------------------|
A|-8-----8-----8-----5--6-|
E|----8-----8-----8-------|
 
Harmonica Interlude:
G|-------------------------------------------------------------------|
D|-------------------------------------------------8-----8------8----|
A|-8-----8-----8-----8-----8-----8-----8-----8--------8------8-----8-|
E|----8-----8-----8-----8-----8-----8-----8-----8--------------------|
 
G|---------------------------------------------------------------|
D|-8------------------------------10------10------10------10-----|
A|----8---8-----8-----8-----8---------10------10------10------10-|
E|-----------8-----8-----8-----8---------------------------------|
 
G|------------------------------------|
D|------------------------------------|
A|-8--------8--------8--------8---5-6-|
E|---8-8--8---8-8--8---8-8--8---8-----|
 
Verses 4:
G|-----------------------------------------------------------------------|
D|-----------------------------------------------------8-----8------8----|
A|-8-----8-----8-----8-------8-----8-----8-----8----------8------8-----8-|
E|----8-----8-----8-----8-8-----8-----8-----8-----8-8--------------------|
 
G|---------------------------------------------------------------------|
D|-8---------------------------------10------10------10------10--------|
A|----8-8---8-----8-----8-----8----------10------10------10------10-10-|
E|-------------8-----8-----8-----8-8-----------------------------------|
 
G|------------------------|
D|------------------------|
A|-8-----8-----8-----5--6-|
E|----8-----8-----8-------|
 
Second Harmonica Interlude:
G|-------------------------------------------------------------------|
D|-------------------------------------------------8-----8------8----|
A|-8-----8-----8-----8-----8-----8-----8-----8--------8------8-----8-|
E|----8-----8-----8-----8-----8-----8-----8-----8--------------------|
 
G|---------------------------------------------------------------|
D|-8------------------------------10------10------10------10-----|
A|----8---8-----8-----8-----8---------10------10------10------10-|
E|-----------8-----8-----8-----8---------------------------------|
 
G|------------------------------------|
D|------------------------------------|
A|-8--------8--------8--------8---5-6-|
E|---8-8--8---8-8--8---8-8--8---8-----|
 
Verses 5:
G|-----------------------------------------------------------------------|
D|-----------------------------------------------------8-----8------8----|
A|-8-----8-----8-----8-------8-----8-----8-----8----------8------8-----8-|
E|----8-----8-----8-----8-8-----8-----8-----8-----8-8--------------------|
 
G|---------------------------------------------------------------------|
D|-8---------------------------------10------10------10------10--------|
A|----8-8---8-----8-----8-----8----------10------10------10------10-10-|
E|-------------8-----8-----8-----8-8-----------------------------------|
 
G|------------------------------------|
D|------------------------------------|
A|-8--------8--------8--------8---5-6-|
E|---8-8--8---8-8--8---8-8--8---8-----|
 
Outro:
G|-----------------------------------------------------------------------|
D|-----------------------------------------------------8-----8------8----|
A|-8-----8-----8-----8-------8-----8-----8-----8----------8------8-----8-|
E|----8-----8-----8-----8-8-----8-----8-----8-----8-8--------------------|
 
G|---------------------------------------------------------------------|
D|-8---------------------------------10------10------10------10--------|
A|----8-8---8-----8-----8-----8----------10------10------10------10-10-|
E|-------------8-----8-----8-----8-8-----------------------------------|
 
                       (Song Fades Out)
G|------------------------------------|
D|------------------------------------|
A|-8--------8--------8--------8---5-6-|
E|---8-8--8---8-8--8---8-8--8---8-----|
            
Submit corrections

↑ Back to top | Tablatures and chords for acoustic guitar and electric guitar, ukulele, drums are parodies/interpretations of the original songs. You may use it for private study, scholarship, research or language learning purposes only