» » »

Bob Dylan - I Want You Tabs

Artists:  A B C D E F G H I J K L M N O P Q R S T U V W X Y Z # 

I Want You Tabs

(ver. 1) Click to play this song!
Bob Dylan
 Rating:
4.3/5 (19 votes)

 I Want You lessons Tabs too difficult? Try these video lessons and learn fast
 
                [Intro]
e|--5--5--6r5--3--5--|--5--5--6r5--3--5--|--5--5--6r5--3-----|--3--------------|
B|-------------------|-------------------|----------------6--|-----6--5--3-----|
G|-------------------|-------------------|-------------------|--------------5--|
D|-------------------|-------------------|-------------------|-----------------|
A|-------------------|-------------------|-------------------|-----------------|
E|-------------------|-------------------|-------------------|-----------------|

e|--------------------|--------------------|
B|--6-----6-----6--6--|--6-----6-----6--6--|
G|--------------------|--------------------|
D|--------------------|--------------------|
A|--------------------|--------------------|
E|--------------------|--------------------|


[Verse 1]
This is the same for all four verses

e|--5--5--6r5--3--5--|--5--5--6r5--3--5--|--5--5--6r5--3-----|--3--------------|
B|-------------------|-------------------|----------------6--|-----6--5--3-----|
G|-------------------|-------------------|-------------------|--------------5--|
D|-------------------|-------------------|-------------------|-----------------|
A|-------------------|-------------------|-------------------|-----------------|
E|-------------------|-------------------|-------------------|-----------------|

e|--------3-----------|--3--3--5r3-----3--|--5--5--6r5--3-----|--3--------------|
B|--6--6-----6--5--6--|-------------6-----|----------------6--|-----6--5--3-----|
G|--------------------|-------------------|-------------------|--------------5--|
D|--------------------|-------------------|-------------------|-----------------|
A|--------------------|-------------------|-------------------|-----------------|
E|--------------------|-------------------|-------------------|-----------------|


[Chorus]
For the first 3 choruses you dont play anything during the last line where he says "Honey, I Want You".
On the last chorus you play this lead three times while Dylan solos, and the 4th time is as the song fades out
so it is optional, obviously.

e|--5--5--6r5--3--5--|--5--5--6r5--3--5--|--5--5--6r5--3-----|--3--------------|
B|-------------------|-------------------|----------------6--|-----6--5--3-----|
G|-------------------|-------------------|-------------------|--------------5--|
D|-------------------|-------------------|-------------------|-----------------|
A|-------------------|-------------------|-------------------|-----------------|
E|-------------------|-------------------|-------------------|-----------------|


[Verse 2]

e|--5--5--6r5--3--5--|--5--5--6r5--3--5--|--5--5--6r5--3-----|--3--------------|
B|-------------------|-------------------|----------------6--|-----6--5--3-----|
G|-------------------|-------------------|-------------------|--------------5--|
D|-------------------|-------------------|-------------------|-----------------|
A|-------------------|-------------------|-------------------|-----------------|
E|-------------------|-------------------|-------------------|-----------------|

e|--------3-----------|--3--3--5r3-----3--|--5--5--6r5--3-----|--3--------------|
B|--6--6-----6--5--6--|-------------6-----|----------------6--|-----6--5--3-----|
G|--------------------|-------------------|-------------------|--------------5--|
D|--------------------|-------------------|-------------------|-----------------|
A|--------------------|-------------------|-------------------|-----------------|
E|--------------------|-------------------|-------------------|-----------------|




[Chorus]

e|--5--5--6r5--3--5--|--5--5--6r5--3--5--|--5--5--6r5--3-----|--3--------------|
B|-------------------|-------------------|----------------6--|-----6--5--3-----|
G|-------------------|-------------------|-------------------|--------------5--|
D|-------------------|-------------------|-------------------|-----------------|
A|-------------------|-------------------|-------------------|-----------------|
E|-------------------|-------------------|-------------------|-----------------|


[Bridge]
Nothing, the lead guitar doesn't get played here!


[Verse 3]

e|--5--5--6r5--3--5--|--5--5--6r5--3--5--|--5--5--6r5--3-----|--3--------------|
B|-------------------|-------------------|----------------6--|-----6--5--3-----|
G|-------------------|-------------------|-------------------|--------------5--|
D|-------------------|-------------------|-------------------|-----------------|
A|-------------------|-------------------|-------------------|-----------------|
E|-------------------|-------------------|-------------------|-----------------|

e|--------3-----------|--3--3--5r3-----3--|--5--5--6r5--3-----|--3--------------|
B|--6--6-----6--5--6--|-------------6-----|----------------6--|-----6--5--3-----|
G|--------------------|-------------------|-------------------|--------------5--|
D|--------------------|-------------------|-------------------|-----------------|
A|--------------------|-------------------|-------------------|-----------------|
E|--------------------|-------------------|-------------------|-----------------|


[Chorus]

e|--5--5--6r5--3--5--|--5--5--6r5--3--5--|--5--5--6r5--3-----|--3--------------|
B|-------------------|-------------------|----------------6--|-----6--5--3-----|
G|-------------------|-------------------|-------------------|--------------5--|
D|-------------------|-------------------|-------------------|-----------------|
A|-------------------|-------------------|-------------------|-----------------|
E|-------------------|-------------------|-------------------|-----------------|


[Verse 4]

e|--5--5--6r5--3--5--|--5--5--6r5--3--5--|--5--5--6r5--3-----|--3--------------|
B|-------------------|-------------------|----------------6--|-----6--5--3-----|
G|-------------------|-------------------|-------------------|--------------5--|
D|-------------------|-------------------|-------------------|-----------------|
A|-------------------|-------------------|-------------------|-----------------|
E|-------------------|-------------------|-------------------|-----------------|

e|--------3-----------|--3--3--5r3-----3--|--5--5--6r5--3-----|--3--------------|
B|--6--6-----6--5--6--|-------------6-----|----------------6--|-----6--5--3-----|
G|--------------------|-------------------|-------------------|--------------5--|
D|--------------------|-------------------|-------------------|-----------------|
A|--------------------|-------------------|-------------------|-----------------|
E|--------------------|-------------------|-------------------|-----------------|




[Chorus]
On this last chorus you play this lead three times while Dylan solos, and the 4th time is as the song fades
out so it is optional, obviously.

e|--5--5--6r5--3--5--|--5--5--6r5--3--5--|--5--5--6r5--3-----|--3--------------|
B|-------------------|-------------------|----------------6--|-----6--5--3-----|
G|-------------------|-------------------|-------------------|--------------5--|
D|-------------------|-------------------|-------------------|-----------------|
A|-------------------|-------------------|-------------------|-----------------|
E|-------------------|-------------------|-------------------|-----------------|            
Submit corrections


        I Want You lessons Hard to play? Try these video lessons and learn fast I Want You lessons
        
↑ Back to top | Tablatures and chords for acoustic guitar and electric guitar, ukulele, drums are parodies/interpretations of the original songs. You may use it for private study, scholarship, research or language learning purposes only