» » »

Bob Dylan - Ill Be Your Baby Tonight Tabs

Artists:  A B C D E F G H I J K L M N O P Q R S T U V W X Y Z # 

Ill Be Your Baby Tonight Tabs

(ver. 1) Click to play this song!
Bob Dylan
 Rating:
4.6/5 (21 vote)

 Ill Be Your Baby Tonight  lessons Tabs too difficult? Try these video lessons and learn fast
 
                 Intro
  Q=130
  F
 4/4
  Gtr I (Ac. Gtr.)
  Q  Q  +Q   Q    +Q   Q  +Q   Q    +Q   Q  +Q   Q
|-1--1--(1)--1--|-(1)--1--(1)--1--|-(1)--1--(1)--1---|
|-1--1--(1)--1--|-(1)--1--(1)--1--|-(1)--1--(1)--1---|
|-2--2--(2)--2--|-(2)--2--(2)--2--|-(2)--2--(2)--2---|
|-3--3--(3)--3--|-(3)--3--(3)--3--|-(3)--3--(3)--3---|
|-3--3--(3)--3--|-(3)--3--(3)--3--|-(3)--3--(3)--3---|
|-1--1--(1)--1--|-(1)--1--(1)--1--|-(1)--1--(1)--1---|


                    G
  +Q   Q  +Q   Q    Q  Q  +Q   Q    +Q   Q  +Q   Q    +Q   Q  +Q   Q
|-(1)--1--(1)--1--|-3--3--(3)--3--|-(3)--3--(3)--3--|-(3)--3--(3)--3--|
|-(1)--1--(1)--1--|-3--3--(3)--3--|-(3)--3--(3)--3--|-(3)--3--(3)--3--|
|-(2)--2--(2)--2--|-4--4--(4)--4--|-(4)--4--(4)--4--|-(4)--4--(4)--4--|
|-(3)--3--(3)--3--|-5--5--(5)--5--|-(5)--5--(5)--5--|-(5)--5--(5)--5--|
|-(3)--3--(3)--3--|-5--5--(5)--5--|-(5)--5--(5)--5--|-(5)--5--(5)--5--|
|-(1)--1--(1)--1--|-3--3--(3)--3--|-(3)--3--(3)--3--|-(3)--3--(3)--3--|


                    Bb                              C
  +Q   Q  +Q   Q    Q  Q  +Q   Q    +Q   Q  Q  Q     Q   Q   +Q    Q
|-(3)--3--(3)--3--|-6--6--(6)--6--|-(6)--6--6--6--|--8---8---(8)---8--|
|-(3)--3--(3)--3--|-6--6--(6)--6--|-(6)--6--6--6--|--8---8---(8)---8--|
|-(4)--4--(4)--4--|-7--7--(7)--7--|-(7)--7--7--7--|--9---9---(9)---9--|
|-(5)--5--(5)--5--|-8--8--(8)--8--|-(8)--8--8--8--|-10--10--(10)--10--|
|-(5)--5--(5)--5--|-8--8--(8)--8--|-(8)--8--8--8--|-10--10--(10)--10--|
|-(3)--3--(3)--3--|-6--6--(6)--6--|-(6)--6--6--6--|--8---8---(8)---8--|


                        F
                                                                        |3|
   +Q    Q   +Q    Q    Q  Q  +Q   Q    +Q   Q  +Q   E E   +Q   Q  +Q   Q E
|--(8)---8---(8)---8--|-1--1--(1)--1--|-(1)--1--(1)--1-1-|-(1)--1--(1)--1-1-|
|--(8)---8---(8)---8--|-1--1--(1)--1--|-(1)--1--(1)--1-1-|-(1)--1--(1)--1-1-|
|--(9)---9---(9)---9--|-2--2--(2)--2--|-(2)--2--(2)--2-2-|-(2)--2--(2)--2-2-|
|-(10)--10--(10)--10--|-3--3--(3)--3--|-(3)--3--(3)--3-3-|-(3)--3--(3)--3-3-|
|-(10)--10--(10)--10--|-3--3--(3)--3--|-(3)--3--(3)--3-3-|-(3)--3--(3)--3-3-|
|--(8)---8---(8)---8--|-1--1--(1)--1--|-(1)--1--(1)--1-1-|-(1)--1--(1)--1-1-|


                 1st Verse
     |3|                 |3-| |3|                        |3-| |3|
  Q  Q E Q  Q     Q  Q  +Q  E Q E   Q  Q  Q  Q    Q  Q  +Q  E Q E
|-1--1-1-1--1--||-1--1--(1)-1-1-1-|-1--1--1--1--|-1--1--(1)-1-1-1-|
|-1--1-1-1--1--||-1--1--(1)-1-1-1-|-1--1--1--1--|-1--1--(1)-1-1-1-|
|-2--2-2-2--2--||-2--2--(2)-2-2-2-|-2--2--2--2--|-2--2--(2)-2-2-2-|
|-3--3-3-3--3--||-3--3--(3)-3-3-3-|-3--3--3--3--|-3--3--(3)-3-3-3-|
|-3--3-3-3--3--||-3--3--(3)-3-3-3-|-3--3--3--3--|-3--3--(3)-3-3-3-|
|-1--1-1-1--1--||-1--1--(1)-1-1-1-|-1--1--1--1--|-1--1--(1)-1-1-1-|


             G
           |3|          |3-| |3|          |3-| |3|          |3-| |3|
  Q  Q  Q  Q E   Q  Q  +Q  E Q E   Q  Q  +Q  E Q E   Q  Q  +Q  E Q E
|-1--1--1--1-3-|-3--3--(3)-3-3-3-|-3--3--(3)-3-3-3-|-3--3--(3)-3-3-3-|
|-1--1--1--1-3-|-3--3--(3)-3-3-3-|-3--3--(3)-3-3-3-|-3--3--(3)-3-3-3-|
|-2--2--2--2-4-|-4--4--(4)-4-4-4-|-4--4--(4)-4-4-4-|-4--4--(4)-4-4-4-|
|-3--3--3--3-5-|-5--5--(5)-5-5-5-|-5--5--(5)-5-5-5-|-5--5--(5)-5-5-5-|
|-3--3--3--3-5-|-5--5--(5)-5-5-5-|-5--5--(5)-5-5-5-|-5--5--(5)-5-5-5-|
|-1--1--1--1-3-|-3--3--(3)-3-3-3-|-3--3--(3)-3-3-3-|-3--3--(3)-3-3-3-|


                    Bb                              C
         |3-| |3|                        |3-| |3|             |-3-|  |3-|
  Q  Q  +Q  E Q E   Q  Q  Q  Q    Q  Q  +Q  E Q E    Q   Q   +Q   E  Q  E
|-3--3--(3)-3-3-3-|-6--6--6--6--|-6--6--(6)-6-6-6-|--8---8---(8)--8--8--8-|
|-3--3--(3)-3-3-3-|-6--6--6--6--|-6--6--(6)-6-6-6-|--8---8---(8)--8--8--8-|
|-4--4--(4)-4-4-4-|-7--7--7--7--|-7--7--(7)-7-7-7-|--9---9---(9)--9--9--9-|
|-5--5--(5)-5-5-5-|-8--8--8--8--|-8--8--(8)-8-8-8-|-10--10--(10)-10-10-10-|
|-5--5--(5)-5-5-5-|-8--8--8--8--|-8--8--(8)-8-8-8-|-10--10--(10)-10-10-10-|
|-3--3--(3)-3-3-3-|-6--6--6--6--|-6--6--(6)-6-6-6-|--8---8---(8)--8--8--8-|


                          F                                   C
            |-3-|  |3-|          |3-| |3|          |3-| |3|          |3-| |3|
   Q   Q   +Q   E  Q  E   Q  Q  +Q  E Q E   Q  Q  +Q  E Q E   Q  Q  +Q  E Q E
|--8---8---(8)--8--8--8-|-1--1--(1)-1-1-1-|-1--1--(1)-1-1-1-|-0--0--(0)-0-0-0-|
|--8---8---(8)--8--8--8-|-1--1--(1)-1-1-1-|-1--1--(1)-1-1-1-|-1--1--(1)-1-1-1-|
|--9---9---(9)--9--9--9-|-2--2--(2)-2-2-2-|-2--2--(2)-2-2-2-|-0--0--(0)-0-0-0-|
|-10--10--(10)-10-10-10-|-3--3--(3)-3-3-3-|-3--3--(3)-3-3-3-|-2--2--(2)-2-2-2-|
|-10--10--(10)-10-10-10-|-3--3--(3)-3-3-3-|-3--3--(3)-3-3-3-|-3--3--(3)-3-3-3-|
|--8---8---(8)--8--8--8-|-1--1--(1)-1-1-1-|-1--1--(1)-1-1-1-|-----------------|


                    2nd Verse
         |3-| |3|           |3-| |3|          |3-| |3|          |3-| |3|
  Q  Q  +Q  E Q E    Q  Q  +Q  E Q E   Q  Q  +Q  E Q E   Q  Q  +Q  E Q E
|-0--0--(0)-0-0-0-||-1--1--(1)-1-1-1-|-1--1--(1)-1-1-1-|-1--1--(1)-1-1-1-|
|-1--1--(1)-1-1-1-||-1--1--(1)-1-1-1-|-1--1--(1)-1-1-1-|-1--1--(1)-1-1-1-|
|-0--0--(0)-0-0-0-||-2--2--(2)-2-2-2-|-2--2--(2)-2-2-2-|-2--2--(2)-2-2-2-|
|-2--2--(2)-2-2-2-||-3--3--(3)-3-3-3-|-3--3--(3)-3-3-3-|-3--3--(3)-3-3-3-|
|-3--3--(3)-3-3-3-||-3--3--(3)-3-3-3-|-3--3--(3)-3-3-3-|-3--3--(3)-3-3-3-|
|-----------------||-1--1--(1)-1-1-1-|-1--1--(1)-1-1-1-|-1--1--(1)-1-1-1-|


                    G
         |3-| |3|          |3-| |3|          |3-| |3|          |3-| |3|
  Q  Q  +Q  E Q E   Q  Q  +Q  E Q E   Q  Q  +Q  E Q E   Q  Q  +Q  E Q E
|-1--1--(1)-1-1-3-|-3--3--(3)-3-3-3-|-3--3--(3)-3-3-3-|-3--3--(3)-3-3-3-|
|-1--1--(1)-1-1-3-|-3--3--(3)-3-3-3-|-3--3--(3)-3-3-3-|-3--3--(3)-3-3-3-|
|-2--2--(2)-2-2-4-|-4--4--(4)-4-4-4-|-4--4--(4)-4-4-4-|-4--4--(4)-4-4-4-|
|-3--3--(3)-3-3-5-|-5--5--(5)-5-5-5-|-5--5--(5)-5-5-5-|-5--5--(5)-5-5-5-|
|-3--3--(3)-3-3-5-|-5--5--(5)-5-5-5-|-5--5--(5)-5-5-5-|-5--5--(5)-5-5-5-|
|-1--1--(1)-1-1-3-|-3--3--(3)-3-3-3-|-3--3--(3)-3-3-3-|-3--3--(3)-3-3-3-|


                Bb                                      C
         |3-| |3|          |3-| |3|          |3-| |3|             |-3-|  |3-|
  Q  Q  +Q  E Q E   Q  Q  +Q  E Q E   Q  Q  +Q  E Q E    Q   Q   +Q   E  Q  E
|-3--3--(3)-3-3-6-|-6--6--(6)-6-6-6-|-6--6--(6)-6-6-6-|--8---8---(8)--8--8--8-|
|-3--3--(3)-3-3-6-|-6--6--(6)-6-6-6-|-6--6--(6)-6-6-6-|--8---8---(8)--8--8--8-|
|-4--4--(4)-4-4-7-|-7--7--(7)-7-7-7-|-7--7--(7)-7-7-7-|--9---9---(9)--9--9--9-|
|-5--5--(5)-5-5-8-|-8--8--(8)-8-8-8-|-8--8--(8)-8-8-8-|-10--10--(10)-10-10-10-|
|-5--5--(5)-5-5-8-|-8--8--(8)-8-8-8-|-8--8--(8)-8-8-8-|-10--10--(10)-10-10-10-|
|-3--3--(3)-3-3-6-|-6--6--(6)-6-6-6-|-6--6--(6)-6-6-6-|--8---8---(8)--8--8--8-|


                          F                                   F7
            |-3-|  |3-|          |3-| |3|          |3-| |3|          |3-| |3|
   Q   Q   +Q   E  Q  E   Q  Q  +Q  E Q E   Q  Q  +Q  E Q E   Q  Q  +Q  E Q E
|--8---8---(8)--8--8--8-|-1--1--(1)-1-1-1-|-1--1--(1)-1-1-1-|-1--1--(1)-1-1-1-|
|--8---8---(8)--8--8--8-|-1--1--(1)-1-1-1-|-1--1--(1)-1-1-1-|-1--1--(1)-1-1-1-|
|--9---9---(9)--9--9--9-|-2--2--(2)-2-2-2-|-2--2--(2)-2-2-2-|-2--2--(2)-2-2-2-|
|-10--10--(10)-10-10-10-|-3--3--(3)-3-3-3-|-3--3--(3)-3-3-3-|-1--1--(1)-1-1-1-|
|-10--10--(10)-10-10-10-|-3--3--(3)-3-3-3-|-3--3--(3)-3-3-3-|-3--3--(3)-3-3-3-|
|--8---8---(8)--8--8--8-|-1--1--(1)-1-1-1-|-1--1--(1)-1-1-1-|-1--1--(1)-1-1-1-|


                   Bridge
                    Bb                            F
     |3| |3| |3|          |3| |3|                       |3| |3|
  Q  Q E Q E Q E    Q  Q  Q E Q E   Q  Q  Q  Q    Q  Q  Q E Q E
|-1--1-1-1-1-1-1-||-6--6--6-6-6-6-|-6--6--6--6--|-1--1--1-1-1-1-|
|-1--1-1-1-1-1-1-||-6--6--6-6-6-6-|-6--6--6--6--|-1--1--1-1-1-1-|
|-2--2-2-2-2-2-2-||-7--7--7-7-7-7-|-7--7--7--7--|-2--2--2-2-2-2-|
|-1--1-1-1-1-1-1-||-8--8--8-8-8-8-|-8--8--8--8--|-3--3--3-3-3-3-|
|-3--3-3-3-3-3-3-||-8--8--8-8-8-8-|-8--8--8--8--|-3--3--3-3-3-3-|
|-1--1-1-1-1-1-1-||-6--6--6-6-6-6-|-6--6--6--6--|-1--1--1-1-1-1-|


              G                                       C
        |3| |3|          |3-| |3|          |3-| |3|
  Q  Q  Q E Q E   Q  Q  +Q  E Q E   Q  Q  +Q  E Q E    q  Q  H
|-1--1--1-1-1-3-|-3--3--(3)-3-3-3-|-3--3--(3)-3-3-3-|--8----------|
|-1--1--1-1-1-3-|-3--3--(3)-3-3-3-|-3--3--(3)-3-3-3-|--8----------|
|-2--2--2-2-2-4-|-4--4--(4)-4-4-4-|-4--4--(4)-4-4-4-|--9----------|
|-3--3--3-3-3-5-|-5--5--(5)-5-5-5-|-5--5--(5)-5-5-5-|-10----------|
|-3--3--3-3-3-5-|-5--5--(5)-5-5-5-|-5--5--(5)-5-5-5-|-10----------|
|-1--1--1-1-1-3-|-3--3--(3)-3-3-3-|-3--3--(3)-3-3-3-|--8----------|


             3rd Verse
              F
                     |3-| |3|          |3-| |3|          |3-| |3|
  W           Q  Q  +Q  E Q E   Q  Q  +Q  E Q E   Q  Q  +Q  E Q E
|----------||-1--1--(1)-1-1-1-|-1--1--(1)-1-1-1-|-1--1--(1)-1-1-1-|
|----------||-1--1--(1)-1-1-1-|-1--1--(1)-1-1-1-|-1--1--(1)-1-1-1-|
|----------||-2--2--(2)-2-2-2-|-2--2--(2)-2-2-2-|-2--2--(2)-2-2-2-|
|----------||-3--3--(3)-3-3-3-|-3--3--(3)-3-3-3-|-3--3--(3)-3-3-3-|
|----------||-3--3--(3)-3-3-3-|-3--3--(3)-3-3-3-|-3--3--(3)-3-3-3-|
|----------||-1--1--(1)-1-1-1-|-1--1--(1)-1-1-1-|-1--1--(1)-1-1-1-|


                    G
         |3-| |3|          |3-| |3|          |3-| |3|          |3-| |3|
  Q  Q  +Q  E Q E   Q  Q  +Q  E Q E   Q  Q  +Q  E Q E   Q  Q  +Q  E Q E
|-1--1--(1)-1-1-1-|-3--3--(3)-3-3-3-|-3--3--(3)-3-3-3-|-3--3--(3)-3-3-3-|
|-1--1--(1)-1-1-1-|-3--3--(3)-3-3-3-|-3--3--(3)-3-3-3-|-3--3--(3)-3-3-3-|
|-2--2--(2)-2-2-2-|-4--4--(4)-4-4-4-|-4--4--(4)-4-4-4-|-4--4--(4)-4-4-4-|
|-3--3--(3)-3-3-3-|-5--5--(5)-5-5-5-|-5--5--(5)-5-5-5-|-5--5--(5)-5-5-5-|
|-3--3--(3)-3-3-3-|-5--5--(5)-5-5-5-|-5--5--(5)-5-5-5-|-5--5--(5)-5-5-5-|
|-1--1--(1)-1-1-1-|-3--3--(3)-3-3-3-|-3--3--(3)-3-3-3-|-3--3--(3)-3-3-3-|


                Bb                                     C
         |3-| |3|                                |3|             |-3-|  |3-|
  Q  Q  +Q  E Q E   Q  Q  +Q   Q    +Q   Q  +Q   Q E    Q   Q   +Q   E  Q  E
|-3--3--(3)-3-3-6-|-6--6--(6)--6--|-(6)--6--(6)--6-6-|--8---8---(8)--8--8--8-|
|-3--3--(3)-3-3-6-|-6--6--(6)--6--|-(6)--6--(6)--6-6-|--8---8---(8)--8--8--8-|
|-4--4--(4)-4-4-7-|-7--7--(7)--7--|-(7)--7--(7)--7-7-|--9---9---(9)--9--9--9-|
|-5--5--(5)-5-5-8-|-8--8--(8)--8--|-(8)--8--(8)--8-8-|-10--10--(10)-10-10-10-|
|-5--5--(5)-5-5-8-|-8--8--(8)--8--|-(8)--8--(8)--8-8-|-10--10--(10)-10-10-10-|
|-3--3--(3)-3-3-6-|-6--6--(6)--6--|-(6)--6--(6)--6-6-|--8---8---(8)--8--8--8-|


                          F
            |-3-|  |3-|          |3-| |3|          |3-| |3|          |3-| |3|
   Q   Q   +Q   E  Q  E   Q  Q  +Q  E Q E   Q  Q  +Q  E Q E   Q  Q  +Q  E Q E
|--8---8---(8)--8--8--8-|-1--1--(1)-1-1-1-|-1--1--(1)-1-1-1-|-1--1--(1)-1-1-1-|
|--8---8---(8)--8--8--8-|-1--1--(1)-1-1-1-|-1--1--(1)-1-1-1-|-1--1--(1)-1-1-1-|
|--9---9---(9)--9--9--9-|-2--2--(2)-2-2-2-|-2--2--(2)-2-2-2-|-2--2--(2)-2-2-2-|
|-10--10--(10)-10-10-10-|-3--3--(3)-3-3-3-|-3--3--(3)-3-3-3-|-3--3--(3)-3-3-3-|
|-10--10--(10)-10-10-10-|-3--3--(3)-3-3-3-|-3--3--(3)-3-3-3-|-3--3--(3)-3-3-3-|
|--8---8---(8)--8--8--8-|-1--1--(1)-1-1-1-|-1--1--(1)-1-1-1-|-1--1--(1)-1-1-1-|


                    Outro Harmonica Solo
         |3-| |3|           |3-| |3|          |3-| |3|          |3-| |3|
  Q  Q  +Q  E Q E    Q  Q  +Q  E Q E   Q  Q  +Q  E Q E   Q  Q  +Q  E Q E
|-1--1--(1)-1-1-1-||-1--1--(1)-1-1-1-|-1--1--(1)-1-1-1-|-1--1--(1)-1-1-1-|
|-1--1--(1)-1-1-1-||-1--1--(1)-1-1-1-|-1--1--(1)-1-1-1-|-1--1--(1)-1-1-1-|
|-2--2--(2)-2-2-2-||-2--2--(2)-2-2-2-|-2--2--(2)-2-2-2-|-2--2--(2)-2-2-2-|
|-3--3--(3)-3-3-3-||-3--3--(3)-3-3-3-|-3--3--(3)-3-3-3-|-3--3--(3)-3-3-3-|
|-3--3--(3)-3-3-3-||-3--3--(3)-3-3-3-|-3--3--(3)-3-3-3-|-3--3--(3)-3-3-3-|
|-1--1--(1)-1-1-1-||-1--1--(1)-1-1-1-|-1--1--(1)-1-1-1-|-1--1--(1)-1-1-1-|


                    G
         |3-| |3|                                              |3-| |3|
  Q  Q  +Q  E Q E   Q  Q  +Q   Q    +Q   Q  +Q   Q    +Q   Q  +Q  E Q E
|-1--1--(1)-1-1-1-|-3--3--(3)--3--|-(3)--3--(3)--3--|-(3)--3--(3)-3-3-3-|
|-1--1--(1)-1-1-1-|-3--3--(3)--3--|-(3)--3--(3)--3--|-(3)--3--(3)-3-3-3-|
|-2--2--(2)-2-2-2-|-4--4--(4)--4--|-(4)--4--(4)--4--|-(4)--4--(4)-4-4-4-|
|-3--3--(3)-3-3-3-|-5--5--(5)--5--|-(5)--5--(5)--5--|-(5)--5--(5)-5-5-5-|
|-3--3--(3)-3-3-3-|-5--5--(5)--5--|-(5)--5--(5)--5--|-(5)--5--(5)-5-5-5-|
|-1--1--(1)-1-1-1-|-3--3--(3)--3--|-(3)--3--(3)--3--|-(3)--3--(3)-3-3-3-|


                    Bb
         |3-| |3|
  Q  Q  +Q  E Q E   Q  Q  +Q   Q    +Q   Q  +Q   Q
|-3--3--(3)-3-3-3-|-6--6--(6)--6--|-(6)--6--(6)--6--|
|-3--3--(3)-3-3-3-|-6--6--(6)--6--|-(6)--6--(6)--6--|
|-4--4--(4)-4-4-4-|-7--7--(7)--7--|-(7)--7--(7)--7--|
|-5--5--(5)-5-5-5-|-8--8--(8)--8--|-(8)--8--(8)--8--|
|-5--5--(5)-5-5-5-|-8--8--(8)--8--|-(8)--8--(8)--8--|
|-3--3--(3)-3-3-3-|-6--6--(6)--6--|-(6)--6--(6)--6--|


  C
   Q   Q   +Q    Q     +H     H
|--8---8---(8)---8--|--(8)---------*|
|--8---8---(8)---8--|--(8)---------*|
|--9---9---(9)---9--|--(9)---------*|
|-10--10--(10)--10--|-(10)---------*|
|-10--10--(10)--10--|-(10)---------*|
|--8---8---(8)---8--|--(8)---------*|            
Submit corrections


        Ill Be Your Baby Tonight  lessons Hard to play? Try these video lessons and learn fast Ill Be Your Baby Tonight  lessons
        
↑ Back to top | Tablatures and chords for acoustic guitar and electric guitar, ukulele, drums are parodies/interpretations of the original songs. You may use it for private study, scholarship, research or language learning purposes only