» » »

Bob Dylan - Buckets Of Rain Bass

Artists:  A B C D E F G H I J K L M N O P Q R S T U V W X Y Z # 

Buckets Of Rain Bass

(ver. 1) Click to play this song!
Bob Dylan
 Rating:
3/5 (20 votes)

 Buckets Of Rain lessons Tabs too difficult? Try these video lessons and learn fast
 
                Tuning: Eb Ab Db Gb

G|---------9-------------------9------------|
D|----7/9-------7/9-------7/9-----7/9-------|
A|-------------------7-----------------7----|
E|------------------------------------------|

G|------------------------------------------9---|
D|---------7----9p7-------9p7---------7/9-------|
A|----7/9------------9---------9---7------------|
E|----------------------------------------------|

G|------------------------------------------|
D|----7/9---7---6-----------7/9-------------|
A|------------------9---7---------7---------|
E|------------------------------------------|
            
Submit corrections


        Buckets Of Rain lessons Hard to play? Try these video lessons and learn fast Buckets Of Rain lessons
        
↑ Back to top | Tablatures and chords for acoustic guitar and electric guitar, ukulele, drums are parodies/interpretations of the original songs. You may use it for private study, scholarship, research or language learning purposes only