» » »

Bobby Vee - Lil Red Riding Hood Bass

Artists:  A B C D E F G H I J K L M N O P Q R S T U V W X Y Z # 

Lil Red Riding Hood Bass

(ver. 1) Click to play this song!
Bobby Vee
 Rating:
4.3/5 (9 votes)

 Lil Red Riding Hood lessons Tabs too difficult? Try these video lessons and learn fast
 
                G|------------|
D|5-----4-----|
A|------------|
E|------------|

G|------------------------------------------------------------------------------------------------|
D|------------------------------------5-----4-----------------------------------------5-----4-----|
A|7-----------------------------------------------7-----------------------------------------------|
E|------------------------------------------------------------------------------------------------|

0:11

G|------------------------------------7-----------------------9-----------------------------------|
D|------------9-----------5-----------------------7-----------------------7-----7-----------------|
A|7-----------------------------------------------------------------------------------7-----------|
E|------------------------------------------------------------------------------------------------|

G|------------------------------------------------------------------------------------------------|
D|10----------------------9-----------------------------------9-----------------------------------|
A|------------10----------------------9-----------7-----------------------------------------------|
E|------------------------------------------------------------------------7-----7-----7-----7-----|

0:27

G|------------------------------------7-----------------------9-----------------------------------|
D|------------9-----------5-----5-----------5-----7-----7-----------------7-----7-----------------|
A|7-----------------------------------------------------------------------------------7-----------|
E|------------------------------------------------------------------------------------------------|

G|------------------------------------------------------------------------------------------------|
D|10----------------------9-----9-----------------------------9-----------------------------------|
A|------------10----------------------9-----8-----7-----------------------------------------------|
E|------------------------------------------------------------------7-----7-----7-----7-----7-----|

0:43

G|------------------------------------------------------------------------------------------------|
D|------------------------------------------------------------------------------------------------|
A|------------5-----------------------5-----6-----7-----------------------7-----------------------|
E|3-----------------------3---------3-------------------------7-----------------------7-----6-----|

G|------------------------------------------------------------------------------------------------|
D|------------------------------------------------------------------------------------------------|
A|------------7-----------------------7-----6-----5-----------5-----------5---------5-------5-----|
E|5-----------------------5---------5-------------------------------------------------5-----------|

0:58

G|------------------------------------------------------------------------------------------------|
D|------------------------------------------------------------------------------------------------|
A|------------5-----5-----------------5-----6-----7-----7-----------------7-----7-----------------|
E|3-----3-----------------3-----3-----------------------------7-----7-----------------7-----6-----|

G|------------------------------------------------------------------------------------------------|
D|------------------------------------------------------------------------------------------------|
A|------------7-----7-----------------7-----6-----5-----------5-----------5-----5-----------5-----|
E|5-----5-----------------5-----5-----------------------------------5-----------------5-----------|

1:13

G|------------------------------------7-----------------------9-----------------------9-----------|
D|------------9-----------5-----------------5-----7-----------------------7---------------------9-|
A|7-----------------------------------------------------------------------------------------------|
E|------------------------------------------------------------------------------------------------|

G|------------------------------------------------------------------------------------------------|
D|10----------------------9-----------------------------------9-----------------------------------|
A|------------10----------------------9-----------7-----------------------------------------------|
E|------------------------------------------------------------------------7-----7-----7-----7-----|

1:29

G|------------------------------------7-----------------------9-----9-----------------9-----------|
D|------------9-----9-----5-----5-----------5-----7-----7-----------------7-----7---------------9-|
A|7-----7-----------------------------------------------------------------------------------------|
E|------------------------------------------------------------------------------------------------|

G|------------------------------------------------------------------------------------------------|
D|10----10----------10----9-----9-----------9-----------------9-----------------------------------|
A|------------10----------------------9-----------7-----------------------------------------------|
E|------------------------------------------------------------------------7-----7-----7-----7-----|

1:44

G|------------------------------------------------------------------------------------------------|
D|------------------------------------------------------------------------------------------------|
A|------------5-----------------------5-----6-----7-----------------------7-----------------------|
E|3-----------------------3-----3-----------------------------7-----7-----------------7-----6-----|

G|------------------------------------------------------------------------------------------------|
D|------------------------------------------------------------------------------------------------|
A|------------7-----7-----------------7-----6-----5-----------5-----------5---------5-------5-----|
E|5-----5-----------------5-----5-----------------------------------------------------5-----------|

1:59

G|------------------------------------------------------------------------------------------------|
D|------------------------------------------------------------------------------------------------|
A|------------5-----5-----------------5-----6-----7-----7-----------------7-----7-----------------|
E|3-----3-----------------3-----3-----------------------------7-----7-----------------7-----6-----|

G|------------------------------------------------------------------------------------------------|
D|------------------------------------------------------------------------------------------------|
A|------------7-----7-----------------7-----6-----5-----------5-----------5-----5-----------5-----|
E|5-----5-----------------5-----5-----------------------------------5-----------------5-----------|

2:15

G|------------------------------------7-----------------------9-----------------------9-----------|
D|------------9-----------5-----5-----------5---6-7-----7-----------------7-----7-----------------|
A|7-----------------------------------------------------------------------------------------------|
E|------------------------------------------------------------------------------------------------|

G|------------------------------------------------------------------------------------------------|
D|10----------------------9-----------------------------------9-----------------------------------|
A|------------10----------------------9-----8-----7-----------------------------------------------|
E|------------------------------------------------------------------------7-----7-----7-----7-----|

2:30

G|------------------------------------7-----------------------9-----------------------------------|
D|------------9-----------5-----5-----------5-----7-----7-----------------7-----7-----------------|
A|7-----7-----------------------------------------------------------------------------7-----------|
E|------------------------------------------------------------------------------------------------|
1
G|------------------------------|
D|10----------------------9-----| fades out here.
A|------------10----------------|
E|------------------------------|
            
Submit corrections


        Lil Red Riding Hood lessons Hard to play? Try these video lessons and learn fast Lil Red Riding Hood lessons
        
↑ Back to top | Tablatures and chords for acoustic guitar and electric guitar, ukulele, drums are parodies/interpretations of the original songs. You may use it for private study, scholarship, research or language learning purposes only