» » »

Bobby Vee - Dont You Believe Them Bass

Artists:  A B C D E F G H I J K L M N O P Q R S T U V W X Y Z # 

Dont You Believe Them Bass

(ver. 1) Click to play this song!
Bobby Vee
 Rating:
4.1/5 (31 vote)

 Dont You Believe Them lessons Tabs too difficult? Try these video lessons and learn fast
 
                G|----------------------------------------------------------------|
D|----------------5-------------------------------5---------------| x3
A|5-------------------------------3-------------------------------|
E|----------------------------------------------------------------|

0:12

G|----------------------------------------------------------------|
D|----------------5-------------------------------5---------------| x4
A|5-------------------------------3-------------------------------|
E|----------------------------------------------------------------|

G|----------------------------------------------------------------|
D|--------------------------------2---------------2---------------| x2
A|2---------------2-----------------------------------------------|
E|----------------------------------------------------------------|

0:35

G|----------------------------------------------------------------|
D|----------------5-------------------------------5---------------| x7
A|5-------------------------------3-------------------------------|
E|----------------------------------------------------------------|

1:02

G|----------------------------------------------------------------|
D|--------------------------------2---------------2---------------| x2
A|2---------------2-----------------------------------------------|
E|----------------------------------------------------------------|

G|----------------------------------------------------------------|
D|----------------5-------------------------------5---------------| x2
A|5-------------------------------3-------------------------------|
E|----------------------------------------------------------------|

G|----------------------------------------------------------------|
D|2---------------------------------------------------------------|
A|----------------0---------------5---------------0---------------|
E|----------------------------------------------------------------|

1:21

G|----------------------------------------------------------------|
D|2---------------2---------------5---------------5---------------|
A|----------------------------------------------------------------|
E|----------------------------------------------------------------|

G|----------------------------------------------------------------|
D|3---------------3---------------2---------------5-------3-------|
A|----------------------------------------------------------------|
E|----------------------------------------------------------------|

G|----------------------------------------------------------------|
D|2---------------2---------------5---------------5---------------|
A|----------------------------------------------------------------|
E|----------------------------------------------------------------|

G|--------------------------------------------------------------------|
D|3---------------3---------------------------------------------------|
A|--------------------------------2-----2-----2-----2-----2-----2-----|
E|--------------------------------------------------------------------|

1:36

G|----------------------------------------------------------------|
D|2-------2-------------------------------------------------------| x4
A|----------------0-------0-------5-------5-------0-------0-------|
E|----------------------------------------------------------------|

G|----------------------------------------------------------------|
D|--------------------------------2-------2-------2-------2-------| x2
A|2-------2-------2-------2---------------------------------------|
E|----------------------------------------------------------------|

1:59

G|----------------------------------------------------------------|
D|----------------5-------------------------------5---------------| x3
A|5-------------------------------3-------------------------------|
E|----------------------------------------------------------------|

G|----------------------------------------------------------------|
D|----------------5-------------------------------5---------------|
A|5-------------------------------3---------------------------5---|
E|----------------------------------------------------------------|

G|--------------------------------------------------------------------------------|
D|----------------5-------------------------------------5-------------------------|
A|------------------------------------3---------------------------------------5---|
E|--------------------------------------------------------------------------------|
            
Submit corrections


        Dont You Believe Them lessons Hard to play? Try these video lessons and learn fast Dont You Believe Them lessons
        
↑ Back to top | Tablatures and chords for acoustic guitar and electric guitar, ukulele, drums are parodies/interpretations of the original songs. You may use it for private study, scholarship, research or language learning purposes only