» » »

Bobby Darin - Whatd I Say Pts 1 And 2 Tabs

Artists:  A B C D E F G H I J K L M N O P Q R S T U V W X Y Z # 

Whatd I Say Pts 1 And 2 Tabs

(ver. 1) Click to play this song!
Bobby Darin
 Rating:
4/5 (4 votes)

 Whatd I Say Pts 1 And 2  lessons Tabs too difficult? Try these video lessons and learn fast
 
                INTRO: E A E B A E B

(RIFF played all the way through.)
-----------------------------------------------
-----------------------------------------------
-----------------------------------------------
-------0-2------0-0-2--------0-2-------0-0-2---
-----2--------2------------2---------2---------
---0--------0-----------0-----------0----------


-----------------------------------------------
-----------------------------------------------
------0-2--------0-0-2-------------------------
----2----------2-------------------------------
--0----------0---------------------------------
-----------------------------------------------


-----------------------------------------------
-----------------------------------------------
-----------------------------------------------
------0-2------0-0-2---------------------------
----2--------2---------------------------------
--0--------0-----------------------------------



----------------------------------------------
----------------------------------------------
----------2--4-------0-0-2--------------------
-----4-4--------2-2---------------------------
----------------------------------------------
----------------------------------------------

----------------------------------------------
----------------------------------------------
----------------------------------------------
------0-2------0-0-2--------------------------
----2--------2--------------------------------
--0--------0----------------------------------


....E A E B A E...

#1.
E
Hey,  mama, don't you treat me wrong..come and love 

me all night long.
A               E      B           E
Whoaa-whoa, hey-hey, alright, now. 
E
See the woman with the diamond ring, she knows how 

to Twist that thing.
      A       E     B           E
Ohhhh-ho, hey-hey, alright, now.

#2.
E
Tell your Mama, tell your Pa, I'm gonna ship you back 

to Arkansas.
         A                  E                   B    A E
Oooohhh, yeah, you don't do right..you don't do right.
E                                                 A
When you see me in misery, c'mon, babe, sit by me.
    E           B          A E
Hey-hey..it's alright, now.

#3.
E
See the girl with the red dress on, she can do The Twist

all night long.
    A        E             B     A        E
Oh, yea..hey-hey..what'd I say?..what'd I say?

CHORUS:
E
Tell me what'd I say, tell me what'd I say..right now?
                 A                     E
Tell me what'd I say, tell me what'd I say?
                 B    A                E
Tell me what'd I say, tell me what'd I say?

CHORUS:
E
Yeah, I wanna know, I wanna know.
              A
Baby, I wanna know, right now.
             E                    B
Yes, I wanna know..honey, I wanna know.
             E
Yes, I wanna know.

BRIDGE:
E                   
Hey! (hey!) Ho! (ho!)..Hey! (hey!) Ho! (ho!) 

Hey! (Ho!) (hey!) Ho! 


CHORUS:
E
Sing it one more time (sing it one more time)

Sing it one more time (sing it one more time)
                 A
Sing it one more time (sing it one more time)
                 E
Sing it one more time (sing it one more time)
                 B
Sing it one more time (sing it one more time)
                 E
Sing it one more time (sing it one more time)


BRIDGE:
E                   
Hey! (hey!) Ho! (ho!)..Hey! (hey!) Ho! (ho!) 

Hey! (Ho!) (hey!) Ho! 

CHORUS:
E
Make me feel so good (make me feel so good)

Make me feel so good (make me feel so good)
                A
Make me feel so good (make me feel so good)
                E
Make me feel so good (make me feel so good)
                B
Make me feel so good (make me feel so good)
                E
Make me feel so good (make me feel so good)

BRIDGE:
E
Huh (huh) Huh (huh)..Huh (huh) Huh (huh)

Huh (huh) Huh (huh) Huh (huh) Huh (huh)

CHORUS:
E
Baby it's alright (Baby it's alright)

Baby it's alright (Baby it's alright)
            A
Baby it's alright (Baby it's alright)
            E
Baby it's alright (Baby it's alright)
            B
Baby it's alright (Baby it's alright)
            E
Baby it's alright (Baby it's alright)

CHORUS:
E
C'mon Twist that thing (baby Twist that thing)

C'mon Twist that thing (baby Twist that thing)
                   A
Keep Twistin' that thing (baby Twist that thing)
                   E
Keep Twistin' that thing (baby Twist that thing)
                   B
Keep Twistin' that thing (baby Twist that thing)
                   E
Keep Twistin' that thing (baby Twist that thing)

OUTRO:
E
Make me feel alright (make me feel alright)

Well, I feel alright (make me feel alright)
               A
Well, I feel alright (make me feel alright)
               E
Well, I feel alright (make me feel alright)
             B
And I feel alright (make me feel alright)
             E
And I feel alright (make me feel alright)(Stop!)            
Submit corrections


        Whatd I Say Pts 1 And 2  lessons Hard to play? Try these video lessons and learn fast Whatd I Say Pts 1 And 2  lessons
        
↑ Back to top | Tablatures and chords for acoustic guitar and electric guitar, ukulele, drums are parodies/interpretations of the original songs. You may use it for private study, scholarship, research or language learning purposes only