» » »

Bobby Darin - Dream Lover Tabs

Artists:  A B C D E F G H I J K L M N O P Q R S T U V W X Y Z # 

Dream Lover Tabs

(ver. 1) Click to play this song!
Bobby Darin
 Rating:
3.1/5 (29 votes)

 Dream Lover lessons Tabs too difficult? Try these video lessons and learn fast
 
                e|---------------------------------------------------------------------------|
B|---------------------------------------------------------------------------|
G|---------------------------------------------------------------------------|
D|---------------------------------------------------------------------------|
A|-------------------------------------------3--------------------------------|
E|-0-0--0--0--0--2----4----2----0--------0------0---3-----0----3---0----------|

e|---------------------------------------------------------------------------|
B|---------------------------------------------------------------------------|
G|---------------------------------------------------------------------------|
D|---------------------------------------------------------------------------|
A|-------------------------------------------3--------------------------------|
E|-0-0--0--0--0--2----4----2----0--------0------0---3-----0----3---0----------|


e|---------------------------------------------------------------------------|
B|---------------------------------------------------------------------------|
G|---------------------------------------------------------------------------|
D|---------------------------------------------------------------------------|
A|-----3----------------------------------------------------------------------|
E|--0-----0------2-------3/4-------4/5----0-0-2-----4----2---0---2------------|

e|---------------------------------------------------------------------------|
B|---------------------------------------------------------------------------|
G|---------------------------------------------------------------------------|
D|---------------------------------------------------------------------------|
A|-3------3------3-----------------------3----------------------------------|
E|----0----0-------0--3---0--------0---0------0---2----4----2----0-----------|

e|---------------------------------------------------------------------------|
B|---------------------------------------------------------------------------|
G|---------------------------------------------------------------------------|
D|---------------------------------------------------------------------------|
A|-----3------------------------------------------------------------3----------|
E|-0--------0---3--0--3--0----0--0--0---0-0--2---4---4---0----0----0---3---3-0-|

e|---------------------------------------------------------------------------|
B|---------------------------------------------------------------------------|
G|---------------------------------------------------------------------------|
D|---------------------------------------------------------------------------|
A|------3--------------------------------------------------------------------|
E|-0--------0-------2----3/4-----4/5---0--0--2--4--2-0--2--------------------|

e|---------------------------------------------------------------------------|
B|---------------------------------------------------------------------------|
G|---------------------------------------------------------------------------|
D|---------------------------------------------------------------------------|
A|--3--------3-------3----------------------------------------------------------|
E|------0--------0--------0---2---0-----------------------------------------------|
            
Submit corrections


        Dream Lover lessons Hard to play? Try these video lessons and learn fast Dream Lover lessons
        
↑ Back to top | Tablatures and chords for acoustic guitar and electric guitar, ukulele, drums are parodies/interpretations of the original songs. You may use it for private study, scholarship, research or language learning purposes only