» » »

Bobby Darin - Clementine Tabs

Artists:  A B C D E F G H I J K L M N O P Q R S T U V W X Y Z # 

Clementine Tabs

(ver. 1) Click to play this song!
Bobby Darin
 Rating:
4.3/5 (18 votes)

 Clementine lessons Tabs too difficult? Try these video lessons and learn fast
 
                [Verse]
   C                              +                                              +
E|---------------------|------------------------|-----------0----0----|-0----------------------|
B|-----------1----1----|-1----------------------|---------------------|----------1-------------|
G|---------------------|----------0-------------|---------------------|------------------------|
D|------2---------2----|------2------------2----|------2---------2----|------2------------2----|
A|-3-------------------|-3----------------------|-3-------------------|-3----------------------|
E|-----------3---------|--------------3---------|-----------3---------|--------------3---------|

                                  +                                     G
E|----------------0----|-3--------3-------------|-----------1---p0----|---------------------|
B|-----------1---------|------------------------|---------------------|-3-------------------|
G|---------------------|------------------------|---------------------|---------------------|
D|------2---------2----|------2------------2----|------2---------2----|------0---------0----|
A|-3-------------------|-3----------------------|-3-------------------|-----------2---------|
E|-----------3---------|--------------3---------|-----------3---------|-3-------------------|

                                  +                                     C        +
E|----------------0----|-1--------1-------------|-----------3---p1----|-0----------------------|
B|-----------3---------|------------------------|---------------------|----------1-------------|
G|---------------------|------------------------|---------------------|------------------------|
D|------0---------0----|------0------------0----|------0---------0----|------2------------2----|
A|-----------2---------|--------------2---------|-----------2---------|-3----------------------|
E|-3-------------------|-3----------------------|-3-------------------|--------------3---------|

                         G        +                                     C
E|----------------0----|------------------------|---------------------|---------------------|
B|-----------1---------|-3----------------------|-----------0---h3----|-1-------------------|
G|---------------------|----------0-------------|---------------------|---------------------|
D|------2---------2----|------0------------0----|------0---------0----|------2---------2----|
A|-3-------------------|--------------2---------|-----------2---------|-3-------------------|
E|-----------3---------|-3----------------------|-3-------------------|-----------3---------|

            
Submit corrections


        Clementine lessons Hard to play? Try these video lessons and learn fast Clementine lessons
        
↑ Back to top | Tablatures and chords for acoustic guitar and electric guitar, ukulele, drums are parodies/interpretations of the original songs. You may use it for private study, scholarship, research or language learning purposes only