Home » B » Bobby Bare »

Bobby Bare - Find Out Whats Happening Tabs

Artists:  A B C D E F G H I J K L M N O P Q R S T U V W X Y Z # 

Find Out Whats Happening Tabs

(ver. 1) Click to play this song!
Bobby Bare
[Intro]

e|----------0--------------0------------------0------------------------------|
B|------------3p0------------3p0-------------------3p0-----------------------|
G|---------------------------------------------------------------------------| 
D|----2-0-2---------2-0-2--------------2-0-2---------------------------------|
A|---------------------------------------------------------------------------|
E|---------------------------------------------------------------------------|


[Verse]

e|----------0--------------0------------------0------------------------------|
B|------------3p0------------3p0-------------------3p0-----------------------|
G|---------------------------------------------------------------------------| 
D|----2-0-2---------2-0-2--------------2-0-2---------------------------------|
A|---------------------------------------------------------------------------|
E|---------------------------------------------------------------------------|


[Chorus]
 
e|--------------------------------0------------0-----------------------------|
B|---------------------------------3p0------------3p0------------------------|
G|------------1-2---2-----1-2---2--------------------------------------------|
D|-2-0-2-2-4-----2---2-4-----2-----------2-0-2---------2-0-2-2-1-0-----------|
A|----------------------------------------------------------------2--2-2-1-0-|
E|------------------------------------------------------------------2--------|


[Between Verses]

e|-----0-----------------0-------------------------|
B|-------3p0----------------3p0--------------------|
G|-------------------------------------------------|
D|----------------2-0-2------------2-0-2-----1-2---|
A|---------------------------------------2-4-------|
E|-------------------------------------------------|


[Verse]

e|----------0--------------0------------------0------------------------------|
B|------------3p0------------3p0-------------------3p0-----------------------|
G|---------------------------------------------------------------------------| 
D|----2-0-2---------2-0-2--------------2-0-2---------------------------------|
A|---------------------------------------------------------------------------|
E|---------------------------------------------------------------------------|


[Chorus]
 
e|--------------------------------0------------0-----------------------------|
B|---------------------------------3p0------------3p0------------------------|
G|------------1-2---2-----1-2---2--------------------------------------------|
D|-2-0-2-2-4-----2---2-4-----2-----------2-0-2---------2-0-2-2-1-0-----------|
A|----------------------------------------------------------------2--2-2-1-0-|
E|------------------------------------------------------------------2--------|


[Outro]

e|----------0--------------0------------------0------------------------------|
B|------------3p0------------3p0-------------------3p0-----------------------|
G|---------------------------------------------------------------------------| 
D|----2-0-2---------2-0-2--------------2-0-2---------------------------------|
A|---------------------------------------------------------------------------|
E|---------------------------------------------------------------------------|            
Submit corrections

↑ Back to top | Tablatures and chords for acoustic guitar and electric guitar, ukulele, drums are parodies/interpretations of the original songs. You may use it for private study, scholarship, research or language learning purposes only