» » »

Blur - Woohoo Song Bass

Artists:  A B C D E F G H I J K L M N O P Q R S T U V W X Y Z # 

Woohoo Song Bass

(ver. 1) Click to play this song!
Blur
 Rating:
4/5 (4 votes)
                Country: Holland/Netherlands

chorus (after "woohoo" you start playing..)
G|----------------------------|
D|----------------------------|
A|-8-8--6-6-6-----------------|
E|-------------4-4--6--8--8-8-|

Riff#1 (play it after finished singing the chorus)
G|------------------------------|
D|------------------------------|
A|------------------------------|
E|-1-/4\1-/4-/1--4-4-6-8--8--8--|

Riff#2 (play it when you finished the last chorus singing,
instead of playing this you can do Riff#1 twice and the chorus twice)
G|------------------------------|
D|------------------------------|
A|------------------------------|
E|-1-/4\1-/4-/8--4-4-6-8--8--8--|
            
Submit corrections

↑ Back to top | Tablatures and chords for acoustic guitar and electric guitar, ukulele, drums are parodies/interpretations of the original songs. You may use it for private study, scholarship, research or language learning purposes only