Home » B » Blur »

Blur - There's No Other Way Bass

Artists:  A B C D E F G H I J K L M N O P Q R S T U V W X Y Z # 

There's No Other Way Bass

(ver. 1) Click to play this song!
Blur
"update...this should be right.

Intro:

guitar plays once. Drums come in. Then bass comes in:

G|-------------------------|
D|-------------5-5----5----|
A|-7-7----7--------5h7-7-5-|
E|-----7h9-9-7-------------| 

change to this when the guitar changes:

G|-------------------------|
D|--------5-----------7----|
A|-7-7-5h7-7-5-----7h9-9-7-|
E|-------------7-7---------| 

Verse (you're taking the fun...):

G|-------------------------|
D|--------5-----------7----|
A|-7-7-5h7-7-5-----7h9-9-7-|
E|-------------7-7---------| 

Chorus (there's no other way...):

G|--------------------------|
D|--------5------------5----|
A|-7-7-5h7-7-5--2-2-5h7-7-5-|
E|--------------------------|

(all that you can do...)

G|-----------------------------|
D|-----------------------------|
A|-11-11-11-11-9-9-9-9-7-7-7-7-|
E|-----------------------------|

Bridge:

G|-7p4h7-4---4---------7h8p7-|
D|---------5---5-7h9p7-------|
A|---------------------------|
E|---------------------------|

Pre-Verse

G|-------------------------|
D|-------------5-5----5----|
A|-7-7----7--------5h7-7-5-|
E|-----7h9-9-7-------------|

Verse (you're taking the fun...):

G|-------------------------|
D|--------5-----------7----|
A|-7-7-5h7-7-5-----7h9-9-7-|
E|-------------7-7---------| 

Chorus (there's no other way...):

G|--------------------------|
D|--------5------------5----|
A|-7-7-5h7-7-5--2-2-5h7-7-5-|
E|--------------------------|

(all that you can do...)

G|-----------------------------|
D|-----------------------------|
A|-11-11-11-11-9-9-9-9-7-7-7-7-|
E|-----------------------------|

Bridge:

G|-7p4h7-4---4---------7h8p7-|
D|---------5---5-7h9p7-------|
A|---------------------------|
E|---------------------------|

Pre-Solo:

G|-------------------------|
D|-------------5-5----5----|
A|-7-7----7--------5h7-7-5-|
E|-----7h9-9-7-------------|

Solo:

G|-------------------------|
D|--------5-----------7----|
A|-7-7-5h7-7-5-----7h9-9-7-|
E|-------------7-7---------| 

Chorus (there's no other way...):

G|--------------------------|
D|--------5------------5----|
A|-7-7-5h7-7-5--2-2-5h7-7-5-|
E|--------------------------|

(all that you can do...)

G|-----------------------------|
D|-----------------------------|
A|-11-11-11-11-9-9-9-9-7-7-7-7-|
E|-----------------------------|

Bridge:

G|-7p4h7-4---4---------7h8p7-|
D|---------5---5-7h9p7-------|
A|---------------------------|
E|---------------------------|

Outro:

G|-------------------------|
D|-------------5-5----5----|
A|-7-7----7--------5h7-7-5-|
E|-----7h9-9-7-------------|

think thats it. have fun? rate as well.
"            
Submit corrections

↑ Back to top | Tablatures and chords for acoustic guitar and electric guitar, ukulele, drums are parodies/interpretations of the original songs. You may use it for private study, scholarship, research or language learning purposes only