Home » B » Blur »

Blur - Ernold Same Tabs

Artists:  A B C D E F G H I J K L M N O P Q R S T U V W X Y Z # 

Ernold Same Tabs

(ver. 1) Click to play this song!
Blur
Blur - "Ernold Same"
Words & Music By : Damon Albarn, Graham Coxon, Alex James & David Rowntree
--------------------------------------------
13.5.1999 V1.0
    C                   Db                   C
               (spoken) Ernold Same .....
e-|-3----------1---0-------------------------------------------------------|
B-|--------1------------4-------------------------------1------------------|
G-|----0----------------6---------6-------5\-3-----------------1-----0-----|
D-|---------------------6-----6--------------------2-----------------------|
A-|-3-------------------4------------4-------3-----------------------------|
E-|------------------------------------------------------------------------|

   Bbm                            
   .....
e-|-----------------3--------3---|
B-|-------------2----------------|
G-|---------3--------------------|
D-|-----3------------------------|
A-|-1----------------------------|
E-|------------------------------|

!!With bounce, like this:!!
     C                                     Am
                            Looked ......
e-|-------0----0------------0----0------|--------0----0-----------0----0---|
B-|-------1----1------------1----1------|--------1----1-----------1----1---|
G-|-------0----0------------0----0------|--------2----2-----------2----2---|
D-|-------------------------------------|----------------------------------|
A-|--3----------------3-----------------|--0----------------0--------------|
E-|-------------------------------------|----------------------------------|

     Eb                             G
    frown,                       ....
e-|------------------------------|--------3----3---------3-----3-----------|
B-|--------8---8---------8---8---|--------3----3---------3-----4-----------|
G-|--------8---8---------8---8---|--------4----4---------4-----4-----------|
D-|--------8---8---------8---8---|--5----------------5---------------------|
A-|---6-------------6------------|-----------------------------------------|
E-|------------------------------|-----------------------------------------|

 C               Bbm                           C
day,        Then Ernold Same ....

Bbm                        C                        Am

  Eb                    G                              Db

                                    Eb
Sung: La,   La,   La,   La,     La, La.                La, La, La, La

    Db                                          Eb            D     G(once)

C                      Am                     F        Am/E         Dm      G
Old Erndold Same, ........

C                           Am

F                      Am/E            Dm               G
nothing, nothing ......

Db                                      Eb
            La,  la,  la,  la,     la,  la
                                        Db
            La,  la,  la,  la,     la,  la
                            Eb        D  G7  C        C...
La,  la,  la,  la,     la,  la
            
Submit corrections

↑ Back to top | Tablatures and chords for acoustic guitar and electric guitar, ukulele, drums are parodies/interpretations of the original songs. You may use it for private study, scholarship, research or language learning purposes only