Home » B » Blue October »

Blue October - Should Be Loved Tabs

Artists:  A B C D E F G H I J K L M N O P Q R S T U V W X Y Z # 

Should Be Loved Tabs

(ver. 1) Click to play this song!
Blue October
Blue October
Approaching Normal


Intro:
E--------------------------------------------|
B--------------------------------------------|
G-9-9----------------------------------------|
D-----12-12-10-10~-10~-10-10h12~-10~-10-10---|
A--------------------------------------------|
E--------------------------------------------|
2x

E---------------------------------------------------------|
B---------------------------------------------------------|
G-9-9-------12-12-12-12-10-10-10-9-9-10-10-10-9-9-9-------|
D-----12-12-----------------------------------------12-12-|
A---------------------------------------------------------|
E---------------------------------------------------------|

E----------------------------------------------|
B----------------------------------------------|
G-----------------------------9-9--------------|
D-10~-10~-10-10h12~-10~-10-10-----12-12-10-10~-|
A----------------------------------------------|
E----------------------------------------------|

Verse:
E----------------------------------|
B----------------------------------|
G----------------------------------|
D-5-555-555-555-555-555-555-555-55-|
A-3-333-333-333-333-333-333-333-33-|
E----------------------------------|

E----------------------------------|
B----------------------------------|
G----------------------------------|
D-2-222-222-222-222-222-222-222-22-|
A-0-000-000-000-000-000-000-000-00-|
E----------------------------------|

E----------------------------------|
B----------------------------------|
G----------------------------------|
D-7-777-777-777-777-777-777-777-77-|
A-5-555-555-555-555-555-555-555-55-|
E----------------------------------|

E----------------------------------|
B----------------------------------|
G----------------------------------|
D-5-555-555-555-555-555-555-555-55-|
A-3-333-333-333-333-333-333-333-33-|
E----------------------------------|

Pre-Chorus: each section 2x - last measure once
E-|-------------------|-----------------|
B-|---8-10-6-8-10-8-6-|---5-8-5-6-8-6-5-|
G-|-7-----------------|-5---------------|
D-|-------------------|-----------------|
A-|-------------------|-----------------|
E-|-------------------|-----------------|

E-----------------|---------------------|
B---5-8-5-6-8-6-5-|---3-5-1-3-5-3-1-----|
G-4---------------|-2---------------2-2-|
D-----------------|---------------------|
A-----------------|---------------------|
E-----------------|---------------------|

Chorus:
E----------------------------------|
B----------------------------------|
G-55555555555555555555555555555555-|
D-xxxxxxxxxxxxxxxxxxxxxxxxxxxxxxxx-|
A-33333333333333333333333333333333-|
E----------------------------------|

E----------------------------------|
B----------------------------------|
G-77777777777777775555555555555555-|
D-xxxxxxxxxxxxxxxxxxxxxxxxxxxxxxxx-|
A-55555555555555553333333333333333-|
E----------------------------------|

E----------------------------------|
B----------------------------------|
G-55555555555555555555555555555555-|
D-xxxxxxxxxxxxxxxxxxxxxxxxxxxxxxxx-|
A-33333333333333333333333333333333-|
E----------------------------------|

E----------------------------------|
B----------------------------------|
G-77777777777777776666666666666666-|
D-xxxxxxxxxxxxxxxxxxxxxxxxxxxxxxxx-|
A-55555555555555554444444444444444-|
E----------------------------------|

Verse 2: repeat as necessary
E-----------------|
B---5-8-5-6-8-6-5-|
G-5---------------|
D-----------------|
A-----------------|
E-----------------|

Same Pre-Chorus

Chorus 2:
E----------------------------------|
B----------------------------------|
G-55555555555555555555555555555555-|
D-xxxxxxxxxxxxxxxxxxxxxxxxxxxxxxxx-|
A-33333333333333333333333333333333-|
E----------------------------------|

E----------------------------------|
B----------------------------------|
G-77777777777777775555555555555555-|
D-xxxxxxxxxxxxxxxxxxxxxxxxxxxxxxxx-|
A-55555555555555553333333333333333-|
E----------------------------------|

E----------------------------------|
B----------------------------------|
G-55555555555555555555555555555555-|
D-xxxxxxxxxxxxxxxxxxxxxxxxxxxxxxxx-|
A-33333333333333333333333333333333-|
E----------------------------------|

E----------------------------------|
B----------------------------------|
G-77777777777777776666666666666666-|
D-xxxxxxxxxxxxxxxxxxxxxxxxxxxxxxxx-|
A-55555555555555554444444444444444-|
E----------------------------------|

E-------------------------------------|
B-------------------------------------|
G-5555555555555555444444444444444443~-|
D-xxxxxxxxxxxxxxxxxxxxxxxxxxxxxxxxxx--|
A-3333333333333333222222222222222221~-|
E-------------------------------------|

Intro

Chorus 2

Questions?
            
Submit corrections

↑ Back to top | Tablatures and chords for acoustic guitar and electric guitar, ukulele, drums are parodies/interpretations of the original songs. You may use it for private study, scholarship, research or language learning purposes only