Home » B » Blue October »

Blue October - Italian Radio Tabs

Artists:  A B C D E F G H I J K L M N O P Q R S T U V W X Y Z # 

Italian Radio Tabs

(ver. 1) Click to play this song!
Blue October
Intro:

Am, F, C, Em (x3)


VERSE I:
Am                           F
I ended the book that I'm writing.
C                                Em
The part about you I'm tearing it out.
Am                           F
A simple goodnight, stop fighting,
C                                Em
There's nothing left to even read about.
Am                           F
I'm leaving you here my darling,
C                                Em
to search for a better and easy way out.
Am                           F
Through all of the pain that I'm causing,
C                                Em
There's nothing left to even sing about

And it goes...

CHORUS:
Am                  F
Ba ba ba baaa da bababa
C                        Em
ah ba lehe ah ba lehe ba ba ba
Am                  F
ba ba ba baaa da bababa
C                       Em
ah ba lehe ah ba lehe babada

SOLO:
   Am      F                      C                      Em
e|-----------------------------------------------------------------------|
B|-1-----------1---1------1---1---1----------1-----------------------0---|
G|--2--2-----2---2------2---2-------0-----0----0-----0-----0---0---0---0-|
D|---2-----3----------3-----------2-----2----2-----2-----2---2---2-------|
A|---------3----------3---------------3----------3-------2---2---2-------|
E|-----------------------------------------------------------------------|

   Am                 F                      C                      Em
e|----------------------------------------------------------------------------------|
B|-1---------1------------1---1------1---1---1----------1-----------------------0---|
G|---2---2-----2---2----2---2------2---2-------0-----0----0-----0-----0---0---0---0-|
D|-2----2----2----2---3----------3-----------2-----2----2-----2-----2---2---2-------|
A|----0----------0----3----------3---------------3----------3-------2---2---2-------|
E|----------------------------------------------------------------------------------|


VERSE II:
Am                   F
Recorded Italian radio.
C                                Em
I changed up the words to make you happy though.
Am                           F
In front of the midnight music chow,
C                                Em
I beat up, I beat up the boy that made her happy though
Am                           F
I've noticed the things that you wanted me to be.
C                                Em
They outweigh the ones that make me happy.
Am                           F
So pull out your hand to meet my, my fine new lady,
C                                Em
She's rock n' roll, and she saved me.

And it goes.... 

CHORUS:
Am                  F
Ba ba ba baaa da bababa
C                        Em
ah ba lehe ah ba lehe ba ba ba
Am                  F
ba ba ba baaa da bababa
C                       Em
ah ba lehe ah ba lehe babada

SOLO:
Same as before, so I won't write it out again

OUTRO:

Am, F, C, Em (x3)            
Submit corrections

↑ Back to top | Tablatures and chords for acoustic guitar and electric guitar, ukulele, drums are parodies/interpretations of the original songs. You may use it for private study, scholarship, research or language learning purposes only