Home » B » Blitz »

Blitz - Youth Tabs

Artists:  A B C D E F G H I J K L M N O P Q R S T U V W X Y Z # 

Youth Tabs

(ver. 1) Click to play this song!
Blitz
e-----------------------------------------------------|
b-----------------------------------------------------|
g-----------------------------------------------------|
d-77777777------9-99----------------------------------|
a-55555555-7-77-7-77-7-7-7----------------------------|
e----------5-55------5-5-5----------------------------|

e-----------------------------------------------------|
b-----------------------------------------------------|
g-----------------------------------------------------|
d-7-777-------9-999-----------------------------------|
a-5-555-7-777-7-777-7-7-7-----------------------------|
e-------5-555-------5-5-5-----------------------------|

This is pretty much the song at some parts they just change the rythm.  
            
Submit corrections

↑ Back to top | Tablatures and chords for acoustic guitar and electric guitar, ukulele, drums are parodies/interpretations of the original songs. You may use it for private study, scholarship, research or language learning purposes only