Home » B » Blitz »

Blitz - Warriors Bass

Artists:  A B C D E F G H I J K L M N O P Q R S T U V W X Y Z # 

Warriors Bass

(ver. 1) Click to play this song!
Blitz
Intro:

G:-------------------------------------------------
D:-------------------------------------------------
A:--------------------------333-2------555-3-3-2---
E:---555-3-555-3-555-3-5555-------3333-------------

Verse:

G:----------------------------------------------------
D:----------------------------------------------------
A:-----------------------------333-2------555-3-3-2---
E:---555-3-555-3-555-3-5-3-5-3-------3333-------------

Chorus:

G:---------------------------------------------------
D:---------------------------------------------------
A:---------2-3-4-5-555-3-2-------------7-777-5-3-2---
E:---5-555-----------------5-3-3333-55---------------

Bridge:

G:--------------------------------------   --------------------------------------------
D:--------------------------------------   --------------------------------------------
A:------------------------5--5----------   --------------5555555-----------------------
E:---5---------------5--5------3--3-0---x1 ---3-555555-0---------0-3333333-000000000---x2

End:

G:-------
D:-------
A:-------
E:---5---

The order is:
.Intro x1
.Verse x5
.Chorus x2
.Verse x4
.Chorus x2
.Verse x7
.Chorus x2
.Bridge x1
.Chorus x6
.End x1            
Submit corrections

↑ Back to top | Tablatures and chords for acoustic guitar and electric guitar, ukulele, drums are parodies/interpretations of the original songs. You may use it for private study, scholarship, research or language learning purposes only