Home » B » Blitz »

Blitz - Nation On Fire Chords

Artists:  A B C D E F G H I J K L M N O P Q R S T U V W X Y Z # 

Nation On Fire Chords

(ver. 1) Click to play this song!
Blitz
BASS INTRO & VERSE:

G|-----------------------------------------------------------------|
D|-----------------9-9-9-7-7-7-6/7-----------------7-7-7-5-5-5-4/5-|
A|-7-7-7-7-7-7-7-7-----------------5-5-5-5-5-5-5-5-----------------| 
E|-----------------------------------------------------------------|

G|-----------------------------------------------------------------|
D|-----------------9-9-9-7-7-7-6/7---------------------------------|
A|-7-7-7-7-7-7-7-7-----------------3-3-3-3-3-3-3-3-5-5-5-5-5-5-5-5-| 
E|-----------------------------------------------------------------|

E                                             D
It's summertime and the country's on the line The lads are on the streets and the riots doing fine
E                                                     C                                      D
Picking up the pieces after the night                 Picking up the pieces for another fight
E                                             D
The bricks beat down in the boys in blue         There's no escape, they're coming for you
E                                             C                                      D
The clubs come down 'round your head        It's war on the streets and they're running red!

CHORUS:
E       E     E        E     E        E        C#slide D     C#slideD
Police are running facing defeat
E       E     E        E     E        E        C                   D
Cities burning in the summer heat                  REPEAT x2

SOLO OVER VERSE CHORDS

E                                               D
The law can't stop the anger of the crowds     They're still coming through tear-gas clouds
E                                                      C                                      D
Police are running, facing defeat                        Tears are falling in the summer heat


CHORUS:  x2
            
Submit corrections

↑ Back to top | Tablatures and chords for acoustic guitar and electric guitar, ukulele, drums are parodies/interpretations of the original songs. You may use it for private study, scholarship, research or language learning purposes only