» » »

Blind Guardian - Noldor Tabs

Artists:  A B C D E F G H I J K L M N O P Q R S T U V W X Y Z # 

Noldor Tabs

(ver. 1) Click to play this song!
Blind Guardian
 Rating:
4/5 (4 votes)

 Noldor lessons Tabs too difficult? Try these video lessons and learn fast
 
                INTRO

            sl.                     sl.
E||--------------------------------------------------------|
B||-------------------5------------------------------------|
G||--6-----4--6-----6---6---------------------6----6-------|
D||--6-----4--6----6------6--7-----6--7----7----7-7-6------|
A||--4-----2--4---4----------7-----6--7---7-7--------------|
E||--------------------------5-----4--5--5-----------------|

Intro:

                 
                 GUITAR 1 
                           
E||-4-------4-------|-5---4---2------||
B||-5---4---5-------|-5---4---2------||
G||-6---4---6-------|-6---5---3------||
D||-6---4---6-------|-7---6---4------||
A||-4---4---4-------|----------------||
E||-----------------|----------------||


    
                 GUITAR 2

E||-9---12-/-9------||-------------------||
B||-9---12-/-9------||-7-9-10-7----------||
G||-9---------------||-------------------||
D||-----------------||-------------------||
A||-----------------||-------------------||
E||-----------------||-------------------||




E||----7--9--7------||-------------------||
B||-9---------10-9--||-5-7-9-7---5-4-----||
G||-----------------||---------------6---||
D||-----------------||-------------------||
A||-----------------||-------------------||
E||-----------------||-------------------||



E||-------------------||
B||-7-9-10-7----------||
G||-------------------||
D||-------------------||
A||-------------------||
E||-------------------||


END INTRO





CHORUS:
(Noldor, blood is on your hands...)
 
            GUITAR 1
E||--------------------------------||
B||--------------------------------||
G||--------------------------------||
D||-6--4/6-------------------------||
A||-4--2/4-------7--6--4-----------||
E||--------------5--4--2-----------||


             GUITAR 2

         Plays the Intro....


Stick:
(Black Clouds...)

E||-------------|-----------------||
B||-------------|-----------------||
G||-------------|-----------------||
D||-6---9-------|-7---6---4-------||
A||-4---7-------|-5---4---2-------||
E||-------------|-----------------||



END CHORUS

Vers (part 1):
(we were lost, on grinding ice...)

              GUITAR 1
E||---------------|-------------------------||
B||---------------|-------------------------||
G||---------------|-------------------------||
D||-6-6-6---------|----------6-6-6----------||
A||-4-4-4---------|-4-4-4-4--4-4-4----------||
E||---------------|-2-2-2-2-----------------||


              GUITAR 2
E||--------------------------------||
B||-5-4----------------------------||
G||-----4--------------------------||
D||-------7-----5-4----------------||
A||-----------------4---7-4-----4--||
E||--------------------------7-----||
            
Submit corrections


        Noldor lessons Hard to play? Try these video lessons and learn fast Noldor lessons
        
↑ Back to top | Tablatures and chords for acoustic guitar and electric guitar, ukulele, drums are parodies/interpretations of the original songs. You may use it for private study, scholarship, research or language learning purposes only