» » »

Blind Guardian - Into The Storn Tabs

Artists:  A B C D E F G H I J K L M N O P Q R S T U V W X Y Z # 

Into The Storn Tabs

(ver. 1) Click to play this song!
Blind Guardian
 Rating:
4/5 (4 votes)

 Into The Storn lessons Tabs too difficult? Try these video lessons and learn fast
 
                Blind Guardian-
One Hell of A band-
Album=Nightfall of Middle-Earth






Intro

  Part 1                                 Part 3
E|--------------------------------------|------------------|
B|--------------------------------------|------------------|
G|--------------------------------------|-13----13-12------|
D|-----11-----9-----12p11-11-11p9-------|----11-------11-9-|
A|--------------------------------10h11-|------------------|
e|-9-9----9-9---9-9---------------------|------------------|
P.M[_]    [_]   [_]

Repeat Part 1 2x and then

  Part 4
E|--------------------------------------|
B|--------------------------------------|
G|-13----13-13------9-TREMOLO-DOWN-&-UP-|
D|----11-------11-9-11------------------|
A|--------------------------------------|
e|--------------------------------------|

Verse 1


                    When you've reached the third line break into 
w/ this Riff 4x     this with the second guitar: 
E|--------------| 
B|----------5---|   D|-4-4-4-4-4-4-4-4-4-and-so-on-|
G|------4---4-4-|   P.M[_________________________]
D|--6-6---5-----|
A|--4-----------|
e|--------------|

Verse 2



E|-------------|     meanwhile guitar 2 does some really weird stuff,
B|-------7-----|     I think he mutes the bass string with his left hand...
G|-8-6---6--6--| 4x  or somethin' like that, neatly fitted between the tones
D|-----9-------|     from guitar 1
A|-------------|
e|-------------|     A|-6-x-x-x-x-|



Pre Chorus

  Oh, It's sweet how the darkness is floating around...

E|-------------|
B|-------------|
G|-------------| 2x
D|-8-6-4-4/15\-|
A|-------------|
e|-------------|

Chorus

I suspect this isn't really a guitar, rather a synt, but anyway...

E|-------------------|
B|-11----11-10-------|
G|-------------------|
D|----13-------13p11-|
A|-------------------|
e|-------------------|

       We're following the will of the one...
E|--------------------------------------------|-------------------------|
B|--------------------------------------------|-------------------------|
G|-8-------------------------6-----------8----|-15p13-15-11-13-15p13-15-|
D|-8--------------9----------6-----------8----|-------------------------|
A|-6--------------9----------4-----------6----|-------------------------|
e|----------------7---------------------------|-------------------------|

   ... Through the dark age and into the storm
E|--------------------------------------------|
B|--------------------------------------------|
G|-(8)-----------------------6----------------|
D|-(8)------------9----------6-----------6----|
A|-(6)------------9----------4-----------6----|
e|----------------7----------------------4----|

skip the first power chord when you repeat the chorus, and then...


Bridge

E|----------------------------|
B|----------------------------|
G|----------------------------| 4x
D|-------4p3-4---------3------|
A|-6----------------------6p4-|
e|---0-0-------0-0-0-0--------|
P.M  [_]       [_____]  

Verse 3

During the first two rows, use the same riff as to Verse 2 4 times, 
then there's this other riff that's almost similar with the riff to 
Verse 2, just that it's played a whole step higher. Anyway use the 
same techniques as in Verse 2 (that weird muting thing)

E|-------------|
B|---------9---|
G|-10-8----8-8-| 4x
D|------11-----|
A|-------------|
e|-------------|

Funky synt part comes with this noisy background riff

E|-----------------------|
B|-----------------------|
G|-----------------------| 4x
D|-11-9-12p11-11-11p9----|
A|--------------------10-|
e|-----------------------|

and then repeat from Verse 2. When you come to the bridge part break
into the solo instead.

Solo

Atleast! The solo is Tabbed RIGHT!

E||-----------------------------------------------------------------
B||-----------------------------------------------------------------
G||-----15-15-14-15-----15-15-14-15-----15-15-14-15-14^-14^-14^-14^-
D||-/13-------------/13-------------/13-----------------------------
A||-----------------------------------------------------------------
e||-----------------------------------------------------------------

E ----------------------------------------------------------------------------
B ----------------------------------------------------------------------------
G ----15-14h15p14-13----13b(15)b13-----14-15-14h15p14----14----------------15-
D -13----------------16------------16-----------------16----16-15-13-15-16----
A ----------------------------------------------------------------------------
e ----------------------------------------------------------------------------

E -----------------------------------------------------------------
B --------------------------------------------------------13-14-16-
G -15-14-------15-14-------15-14--------------------14-15----------
D -------16-13-------16-13-------16-13-15-16--12-13----------------
A -----------------------------------------------------------------
e -----------------------------------------------------------------
                            Guitar 2 takes over
E -------------------------|-------------------------------------------------
B -------------------------|-------------------------------------------------
G -14-15-14h15p14----------|-------------------------------13----13----------
D ----------------16-15-13-|-------------13-15-16-15h16p15----15----16-15-13-
A -------------------------|----13-15-16-------------------------------------
e -------------------------|-17----------------------------------------------
                                                    Both Guitars
E -------------------------------------------------|----------------------------
B -------------------------------------------------|-----------------------11-10
G -------------------------------------------------|10h11p10----8-10h11p10------
D ----------11-13-11h14p11-------------------------|---------10-----------------
A -12-13-14----------------15-13-12-13----13-------|----------------------------
e -------------------------------------14----14-13-|----------------------------

E ----------------------------------------------------11-9h11p9p8-------------
B -10h11h13-11-10-------11-10h11p10----10-------------------------10----10----
G ----------------11-10-------------11----11-10----10----------------11----10-
D ----------------------------------------------13----------------------------
A ----------------------------------------------------------------------------
e ----------------------------------------------------------------------------
 Guitar 1                                    Guitar 2
E|--------------------------------8~--------|-------------------------------
B|-----------------------------------11~-8~-|-----------------8-------------
G|-----10~-9~----------10~-9~---------------|-9-----------------10-9h10p9p6-
D|-10~--------11~-10-8--------10~-----------|---11-10h11p10p8---------------
A|------------------------------------------|-------------------------------
e|------------------------------------------|-------------------------------
                           Guitar 1
E ------------------------|-----------------------------------------
B -11---------------------|-----------------------------------------
G ----13-12h13p12p10-9----|---------------------13-12-13~-15-13-15~-
D ---------------------11-|-15-13-15~-17-15-17~---------------------
A ------------------------|-----------------------------------------
e ------------------------|-----------------------------------------
                                         Guitar 2
E -13-----------------------------------|----------11b(13)b11-11-8--13----------
B ----13-11-13-------------11--b--(13)--|----------13b(14)b13-13-9-----13-11-13-
G -------------12-10-12-13--------------|-13~-12--------------------------------
D --------------------------------------|-------15------------------------------
A --------------------------------------|---------------------------------------
e --------------------------------------|---------------------------------------

E -----------------------------16~--||
B -------------11-11b(13)-11-9-18~--||
G -12-10-12-13----------------------||
D ----------------------------------||
A ----------------------------------||
e ----------------------------------||

Now, there's another version of the intro

Part 1 2x                                Part 2
E|--------------------------------------|------------------|
B|--------------------------------------|------------------|
G|--------------------------------------|-13----13-13------|
D|-----11-----9-----12p11-11-11p9-------|----11-------11-9-|
A|--------------------------------10h11-|------------------|
e|-9-9----9-9---9-9---------------------|------------------|
P.M[_]    [_]   [_]     

Verse 4 (same riff as Verse 1)

  I did my part
  Now it's your turn
  And remember
  What you've promised

and then repeat from verse 2 again. After the bridge break into::::

Outro

 Part 1 3x         Part 2
E|----------------|------------------------------|
B|----------------|------------------------------|
G|----------13-12-|-8-x-x-x-10-x-x-x-11-x-x-x-15-|
D|-13-11-13-------|-9-x-x-x-11-x-x-x-13-x-x-x-13-|
A|----------------|------------------------------|
e|----------------|------------------------------|

Play the first part over again 3x and then:

 Part 3 3x
E|----------------------------|
B|----------------------------|
G|----------------------------|         (I think this is orginally synt)
D|-16-15h16p15-13-15-13-------|
A|----------------------17-14-|
e|----------------------------|

end the song with this
E|----------------|
B|----------------|
G|-------------7~-|
D|-------8-9---8~-|
A|-10-11-9-10-----|
e|-11-12----------|


Hope you like this tabs people, Rock on!!!
            
Submit corrections


        Into The Storn lessons Hard to play? Try these video lessons and learn fast Into The Storn lessons
        
↑ Back to top | Tablatures and chords for acoustic guitar and electric guitar, ukulele, drums are parodies/interpretations of the original songs. You may use it for private study, scholarship, research or language learning purposes only