» » »

Blind Guardian - Ashes To Ashes Tabs

Artists:  A B C D E F G H I J K L M N O P Q R S T U V W X Y Z # 

Ashes To Ashes Tabs

(ver. 1) Click to play this song!
Blind Guardian
 Rating:
4/5 (4 votes)

 Ashes To Ashes lessons Tabs too difficult? Try these video lessons and learn fast
 
                
* Words and music by Blind Guardian (1992)


Legend

fb  - full bend
fbr - full bend then release
hb  - half bend
~   - vibrato
A.H - Artificial Harmonic
P.M - Palm Mute

4/4 Time Signature
Fast Tempo
Tune: Eb

Some of the harmonize are not ready,
but I don't have the patience to work them out right now :)

Intro
Double Tempo
|-----------|--------------|---------|-----------||
|---10---10-|---10---10-10-|---9---9-|---9---9-9-||
|-7----7----|-7----7-------|-7---7---|-7---7-----||
|-----------|--------------|---------|-----------||
|-----------|--------------|---------|-----------||
|-----------|--------------|---------|-----------||
|P.M........ .............. ......... ..........]||
|-----------|--------------|---------|-----------||
|-----------|--------------|---------|-----------||
|-----------|--------------|---------|-----------||
|----7----7-|----7----7--7-|---6---6-|---6---6-6-||
|-5----5----|-5----5-------|-5---5---|-5---5-----||
|-----------|--------------|---------|-----------||
 P.M........ .............. ......... ..........]

0:25
Riff A
|----------|--------|-----|-----|--------------|-------------|--------------|----------------||
|---10--10-|---10-9~|-(9~)|-(9~)|--------------|-------------|--------------|----------------||
|-7---7----|-7------|-----|-----|-*------------|-------------|--------------|---------------*||
|----------|--------|-----|-----|-*------9-9-9-|-8-8-8-7-7-7-|--------------|---------------*||
|----------|--------|-----|-----|--7-7-7-------|-------------|-10--10-10-10-|-8-8-8-10-10-10-||
|----------|--------|-----|-----|--------------|-------------|--------------|----------------||
|                                P.M........... ............. .............. ...............]||
|----------|--------|-----|-----|--------------|-------------|--------------|----------------||
|----------|--------|-----|-----|--------------|-------------|--------------|----------------||
|-7--------|-(7)----|-----|-----|-*------------|-------------|--------------|---------------*||
|-7--------|-(7)--6-|-(6)-|-(6)-|-*2-----------|-(2)---------|-5------------|-3-------------*||
|-5--------|-(5)--6-|-(6)-|-(6)-|--2-----------|-(2)---------|-5------------|-3--------------||
|----------|------4-|-(4)-|-(4)-|--0-----------|-(0)---------|-3------------|-1--------------||

0:33
Riff B
|------|-----|-----|------|-----|-----|-----|-----|------|-----|-----|-----||
|------|-----|-----|------|-----|-----|-----|-----|------|-----|-----|-----||
|-*----|-----|-----|----*-|---4-|-4-4-|-4-3-|-3-3~|----4-|-4-4-|-4-3-|-3-3~||
|-*----|-----|-----|-A.H*-|-2---|-----|-----|-----|--5---|-----|-----|-----||
|----2-|-2-2-|-2-1-|-1-1~-|---2-|-2-2-|-2-1-|-1-1~|----2-|-2-2-|-2-1-|-1-1~||
|--0---|-----|-----|------|-0---|-----|-----|-----|--3---|-----|-----|-----||
|                                                                          ||
|------|-----|-----|------|-----|-----|-----|-----|------|-----|-----|-----||
|------|-----|-----|------|-----|-----|-----|-----|------|-----|-----|-----||
|-*----|-----|-----|----*-|-----|-4---|-3---|-(3)-|------|-----|-3---|-(3)-||
|-*2---|--_--|--_--|--_-*-|-2---|-4---|-3---|-(3)-|--5---|-(5)-|-3---|-(3)-||
|--2---|-----|-----|------|-2---|-2---|-1---|-(1)-|--5---|-(5)-|-1---|-(1)-||
|--0---|-----|-----|------|-0---|-----|-----|-----|--3---|-(3)-|-----|-----||

0:44
Riff C
|---------|-----------|---------|-----------||
|---------|-----------|---------|-----------||
|---------|-----------|---------|-----------||
|---9---9-|---9---9-9-|---8---8-|---8---8-8-||
|-7---7---|-7---7-----|-6---6---|-6---6-----||
|---------|-----------|---------|-----------||
|P.M...... ........... ......... ..........]||
|---------|-----------|---------|-----------||
|---------|-----------|---------|-----------||
|---------|-----------|---------|-----------||
|---------|-----------|---------|-----------||
|-7---7---|-7---7-----|-6---6---|-6---6-----||
|---7---7-|---7---7-7-|---6---6-|---6---6-6-||
 P.M...... ........... ......... ..........]

0:55
Lead 1
|------------------17--------|------------------17---------|
|---20p19p17h19h20-10-20p19--|---20p19p17h19h20-10-20p19---|
|-*-12p11-p9h11h12----12p11*-|-*-12p11-p9h11h12----12p11-*-|
|-*------------------------*-|-*-------------------------*-|
|----------------------------|-----------------------------|
|----------------------------|-----------------------------|
|                                                          |
|----------------------------|-----------------------------|
|----------------------------|-----------------------------|
|-*------------------------*-|-*-------------------------*-|
|-*5-----------------------*-|-*7------------------------*-|
|--5-------------------------|--7--------------------------|
|--3--3--3--3--3--3--3--3----|--5--5--5--5--5--5--5--5-----|
 P.M......................... ............................]

|-------------------------|-------------------------|-------------------A.H---|-----||
|-15-15-17-17-------15-15-|-------------------------|-------------------8b9---|-r8~-||
|--7--7--9--9-17-17--7--7-|-16-16-17-17-14-14-16-16-|-------14-14-------------|-----||
|-------------10-10-------|--9--9-10-10--7--7--9--9-|-17-17--7--7-16-16-17-17-|-14~-||
|-------------------------|-------------------------|-10-10--------9----------|-----||
|-------------------------|-------------------------|-------------------------|-----||
|P.M...................... ......................... ........................]      ||
|-------------------------|-------------------------|-------------------------|-----||
|-------------------------|-------------------------|-------------------------|-----||
|-5-----------------------|-(5)---------------------|-(5)---------------------|-(5)-||
|-5-----------------------|-(5)---------------------|-(5)---------------------|-(5)-||
|-3-----------------------|-(3)---------------------|-(3)---------------------|-(3)-||
|-------------------------|-------------------------|-------------------------|-----||

1:00
Riff D
|-----------------|-----------------|-----------------|-----------------|
|-----------------|-----------------|-----------------|-----------------|
|-----------------|-----------------|-----------------|-----------------|
|-2---------------|-----------------|-3---------------|-----------------|
|-2---------------|-----------------|-3---------------|-----------------|
|-0---0-0-0-0-0-0-|-0-0-0-0-0-0-0-0-|-1---1-1-1-1-1-1-|-1-1-1-1-1-1-1-1-|
 P.M.............. ................. ................. ................]

|-----------------|-----------------|-----------------|-----------------||
|-----------------|-----------------|-----------------|-----------------||
|-5---------------|-----------------|-4---------------|-----------------||
|-5---------------|-----------------|-4---------------|-----------------||
|-3---3-3-3-3-3-3-|-3-3-3-3-3-3-3-3-|-2---2-2-2-2-2-2-|-2-2-2-2-2-2-2-2-||
|-----------------|-----------------|-----------------|-----------------||
 P.M.............. ................. ................. ................]

1:11
Riff E         T           T             T           T
|-------|---|-18p15p11h15-18p15p11h15-|-18p15p11h15-18p15p11h15-|-20-19-|-18~|-19/-|-/---|
|-------|---|-------------------------|-------------------------|-------|----|-----|-----|
|-------|---|-------------------------|-------------------------|-------|----|-----|-----|
|-10--9-|-8~|-------------------------|-------------------------|-10--9-|--8~|-----|-----|
|-------|---|-------------------------|-------------------------|-------|----|-----|-----|
|-------|---|-------------------------|-------------------------|-------|----|-12/-|-/---|
|                                                                                        |
|-------|---|-------------------------|-------------------------|-------|----|-----|-----|
|-------|---|-------------------------|-------------------------|-------|----|-----|-----|
|-5---4-|-3-|-3-----------------------|-------------------------|-5---4-|-3--|-----|-----|
|-5---4-|-3-|-3-----------------------|-------------------------|-5---4-|-3--|--2--|-(2)-|
|-3---2-|-1-|-1--1--1--1--1--1--1--1--|-1--1--1--1--1--1--1--1--|-3---2-|-1--|--2--|-(2)-|
|-------|---|-------------------------|-------------------------|-------|----|--0--|-(0)-|
             P.M...................... ........................]

                T           T             T           T
|-20-19-|-18-|-18p15p11h15-18p15p11h15-|-18p15p11h15-18p15p11h15-|-20-19-|-18~|-19/-|-/---||
|-------|----|-------------------------|-------------------------|-------|----|-----|-----||
|-------|----|-------------------------|-------------------------|-------|----|-----|-----||
|-10--9-|--8~|-------------------------|-------------------------|-10--9-|--8~|-----|-----||
|-------|----|-------------------------|-------------------------|-------|----|-----|-----||
|-------|----|-------------------------|-------------------------|-------|----|-12/-|-/---||
|                                                                                         ||
|-------|----|-------------------------|-------------------------|-------|----|-----|-----||
|-------|----|-------------------------|-------------------------|-------|----|-----|-----||
|-5---4-|--3-|-3-----------------------|-------------------------|-5---4-|-3--|-----|-----||
|-5---4-|--3-|-3-----------------------|-------------------------|-5---4-|-3--|--2--|-(2)-||
|-3---2-|--1-|-1--1--1--1--1--1--1--1--|-1--1--1--1--1--1--1--1--|-3---2-|-1--|--2--|-(2)-||
|-------|----|-------------------------|-------------------------|-------|----|--0--|-(0)-||
              P.M...................... ........................]

1:21
Riff F
|---15-0-0-0-14-0-0-0-|-15-0-0-0-14-0-0-0-|---15-0-0-0-12-0-0-0-|-15-0-0-0-12-0-0-0-||
|---------------------|-------------------|---------------------|-------------------||
|-*-------------------|-----------------*-|-*-------------------|-----------------*-||
|-*-------------------|-----------------*-|-*-------------------|-----------------*-||
|---------------------|-------------------|---------------------|-------------------||
|---------------------|-------------------|---------------------|-------------------||
|                                                                                   ||
|---------------------|-------------------|---------------------|-------------------||
|---------------------|-------------------|---------------------|-------------------||
|-*-------------------|-----------------*-|-*-3-----------------|-(3)-------------*-||
|-*-2-----------------|-(2)-------------*-|-*-3-----------------|-(3)-------------*-||
|---2-----------------|-(2)---------------|---1-----------------|-(1)---------------||
|---0-----------------|-(0)---------------|---------------------|-------------------||

1:32
Riff G
|-------------|-------------|-------------------|----------------||
|-------------|-------------|-------------------|----------------||
|-------9-9-9-|-8-8-8-7-7-7-|-------------------|----------------||
|-7-7-7-------|-------------|-10-10-10-10-10-10-|-8-8-8-10-10-10-||
|-------7-7-7-|-6-6-6-5-5-5-|-------------------|----------------||
|-5-5-5-------|-------------|--8--8--8--8--8--8-|-6-6-6--8--8--8-||
|P.M.......... ............. ................... ...............]||
|-------------|-------------|-------------------|----------------||
|-------------|-------------|-------------------|----------------||
|-2-----------|-(2)---------|-5-----------------|-4--------------||
|-2-----------|-(2)---------|-5-----------------|-4--------------||
|-0-----------|-(0)---------|-3-----------------|-2--------------||
|-------------|-------------|-------------------|----------------||

1:37
Riff H
|-----------------|-----------------|-----------------|-----------------|
|-----------------|-----------------|-----------------|-----------------|
|-----------------|-----------------|-5---------------|-----------------|
|-7---------------|-----------------|-5---------------|-----------------|
|-7---------------|-----------------|-3---3-3-3-3-3-3-|-3-3-3-3-3-3-3-3-|
|-5---5-5-5-5-5-5-|-5-5-5-5-5-5-5-5-|-----------------|-----------------|
 P.M.............. ................. ................. ................]
                                       First Ending      Second Ending
|-----------------|-----------------| |-------|-------| |-------|---------||
|-----------------|-----------------| |-------|-------| |-------|---------||
|-----------------|-----------------| |-----9-|-8---7-| |-----9-|-10---12-||
|-5---------------|-----------------| |-----9-|-8---7-| |-----9-|-10---10-||
|-5---------------|-----------------| |-----7-|-6---5-| |-----7-|--8---10-||
|-3---3-3-3-3-3-3-|-3-3-3-3-3-3-3-3-| |-3-3---|-------| |-3-3---|---------||
 P.M.............. .................   ...]              ...]

1:48
Riff I
Normal Tempo
|-----------------|-----------------|-----------------|-----------------||
|-----------------|-----------------|-----------------|-----------------||
|-----------------|-----------------|-----------------|-----------------||
|-2---------------|-5---------------|-----------------|-----------------||
|-0-0-0-0-0-0-0-0-|-3-3-3-3-3-3-3-3-|-2---------------|-5---------------||
|-----------------|-----------------|-0-0-0-0-0-0-0-0-|-3-3-3-3-3-3-3-3-||
 P.M.............. ................. ................. ................]

1:58
Riff J
Double Tempo
|-----------------|-----------------|-----------------|-----------------|
|-----------------|-----------------|-----------------|-----------------|
|-2---------------|-----------------|-5---------------|-----------------|
|-2---------------|-----------------|-5---------------|-----------------|
|-0-0-0-0-0-0-0-0-|-0-0-0-0-0-0-0-0-|-3-3-3-3-3-3-3-3-|-3-3-3-3-3-3-3-3-|
|-----------------|-----------------|-----------------|-----------------|
 P.M.............. ................. ................. ................]

First Ending
|-----------------|-----------------|-----------------|-----------------|
|-----------------|-----------------|-----------------|-----------------|
|-----------------|-----------------|-----------------|-----------------|
|-2---------------|-----------------|-5---------------|-----------------|
|-2---------------|-----------------|-5---------------|-----------------|
|-0-0-0-0-0-0-0-0-|-0-0-0-0-0-0-0-0-|-3-3-3-3-3-3-3-3-|-3-3-3-3-3-3-3-3-|
 P.M.............. ................. ................. ................]

Second Ending      Third Ending
|---|---|---|---| |---|-----|---|-----||
|---|---|---|---| |---|-----|---|-----||
|---|---|---|---| |---|-----|---|-----||
|-2-|-_-|-_-|-_-| |-2-|-(2)-|-5-|-(5)-||
|-2-|---|---|---| |-2-|-(2)-|-5-|-(5)-||
|-0-|---|---|---| |-0-|-(0)-|-3-|-(3)-||

2:20
Riff K
|-----|-----|-----|-----||
|-----|-----|-----|-----||
|-----|-----|-----|-----||
|-----|-----|-----|-----||
|---7-|-7-7-|-7-6-|-6-6~||
|-5---|-----|-----|-----||
|                       ||
|-----|-----|-----|-----||
|-----|-----|-----|-----||
|-2---|-(2)-|-(2)-|-(2)-||
|-2---|-(2)-|-(2)-|-(2)-||
|-0---|-(0)-|-(0)-|-(0)-||
|-----|-----|-----|-----||

2:25
Lead 2
|-----------------|-----------------|-----------------|-----------------|
|-15b17-----------|-(17~)---15--17--|-18~-------------|-15~-------------|
|-----------------|-----------------|-----------------|-----------------|
|-----------------|-----------------|-----------------|-----------------|
|-----------------|-----------------|-----------------|-----------------|
|-----------------|-----------------|-----------------|-----------------|
|                                                                       |
|-----------------|-----------------|-----------------|-----------------|
|-----------------|-----------------|-----------------|-----------------|
|-----------------|-----------------|-----------------|-----------------|
|-2---------------|-----------------|-3---------------|-----------------|
|-2---------------|-----------------|-3---------------|-----------------|
|-0-0-0-0-0-0-0-0-|-0-0-0-0-0-0-0-0-|-1-1-1-1-1-1-1-1-|-1-1-1-1-1-1-1-1-|
 P.M.............. ................. ................. ................]

|-----------------|-----------------|-----------------|-----------------|
|-15~-------------|-18-----20-------|-18-----18b20r18-|-17~-------------|
|-----------------|-----------------|-----------------|-----------------|
|-----------------|-----------------|-----------------|-----------------|
|-----------------|-----------------|-----------------|-----------------|
|-----------------|-----------------|-----------------|-----------------|
|                                                                       |
|-----------------|-----------------|-----------------|-----------------|
|-----------------|-----------------|-----------------|-----------------|
|-7---------------|-----------------|-9---------------|-----------------|
|-7---------------|-----------------|-9---------------|-----------------|
|-5-5-5-5-5-5-5-5-|-5-5-5-5-5-5-5-5-|-7-7-7-7-7-7-7-7-|-7-7-7-7-7-7-7-7-|
|-----------------|-----------------|-----------------|-----------------|
 P.M.............. ................. ................. ................]

|--------|-------|----|---------|--------|-15b17r(15)-||
|-18-17--|-15-17-|-18~|-(18)-15-|-15--18-|------------||
|--------|-------|----|---------|--------|------------||
|--------|-------|----|---------|--------|------------||
|--------|-------|----|---------|--------|------------||
|--------|-------|----|---------|--------|------------||
|                                                     ||
|--------|-------|----|---------|--------|------------||
|--------|-------|----|---------|--------|------------||
|-10---9-|-7---9-|-10-|-(10)--7-|-7---10-|-7-------7--||
|-10---9-|-7---9-|-10-|-(10)--7-|-7---10-|-7-------7--||
|--8---7-|-5---7-|--8-|-(-8)--5-|-5----8-|-5-------5--||
|--------|-------|----|---------|--------|------------||

Fill 1
|----||
|-17~||
|----||
|----||
|----||
|----||

2:34
Riff L
|-----------------|-----------------|-----------------|-----------------|
|-----------------|-----------------|-----------------|-----------------|
|-9---------------|-----------------|-5---------------|-----------------|
|-9---------------|-----------------|-5---------------|-----------------|
|-7-7-7-7-7-7-7-7-|-7-7-7-7-7-7-7-7-|-3-3-3-3-3-3-3-3-|-3-3-3-3-3-3-3-3-|
|-----------------|-----------------|-----------------|-----------------|
 P.M.............. ................. ................. ................]

|-----------------|-----------------|-----------------|-----------------|
|-----------------|-----------------|-----------------|-----------------|
|-2---------------|-----------------|-4---------------|-----------------|
|-2---------------|-----------------|-4---------------|-----------------|
|-0-0-0-0-0-0-0-0-|-0-0-0-0-0-0-0-0-|-2-2-2-2-2-2-2-2-|-2-2-2-2-2-2-2-2-|
|-----------------|-----------------|-----------------|-----------------|
 P.M.............. ................. ................. ................]

|-----------------|-----------------|-----------------|-----------------|
|-----------------|-----------------|-----------------|-----------------|
|-5---------------|-----------------|-2---------------|-----------------|
|-5---------------|-----------------|-2---------------|-----------------|
|-3-3-3-3-3-3-3-3-|-3-3-3-3-3-3-3-3-|-0-0-0-0-0-0-0-0-|-0-0-0-0-0-0-0-0-|
|-----------------|-----------------|-----------------|-----------------|
 P.M.............. ................. ................. ................]

|-----|-----|-----|-----||
|-----|-----|-----|-----||
|-----|-----|-----|-----||
|---4-|-5-4-|-2-4-|-5-4~||
|-2---|-----|-----|-----||
|-----|-----|-----|-----||
|                       ||
|-----|-----|-----|-----||
|-----|-----|-----|-----||
|-4---|-(4)-|-(4)-|-(4)-||
|-4---|-(4)-|-(4)-|-(4)-||
|-2---|-(2)-|-(2)-|-(2)-||
|-----|-----|-----|-----||

2:56
Riff M
|---|---|---|-----|---|---|---|---|---|---|---|---|---|---------|---|-----||
|---|---|---|-----|---|---|---|---|---|---|---|---|---|---------|---|-----||
|---|-2-|---|-----|-2-|-4-|-5-|-2-|---|---|---|---|---|---------|-7-|-(7)-||
|-2-|-2-|-5-|-(5)-|-2-|-4-|-5-|-2-|-2-|-5-|-7-|-9-|-7-|-(7)-----|-7-|-(7)-||
|-2-|-0-|-5-|-(5)-|-0-|-2-|-3-|-0-|-2-|-5-|-7-|-9-|-7-|-(7)-5-5-|-5-|-(5)-||
|-0-|---|-3-|-(3)-|---|---|---|---|-0-|-3-|-5-|-7-|-5-|-(5)-----|---|-----||

3:06
Riff N
|-15---17-|-(17)-19-|-15------|-(15)----|-10---12-|-(12)-14-|-10------|-(10)----|
|---------|---------|---------|---------|---------|---------|---------|---------|
|-12---14-|-(14)-16-|-12------|-(12)----|--7----9-|--(9)-11-|--7------|--(7)----|
|---------|---------|---------|---------|---------|---------|---------|---------|
|---------|---------|---------|---------|---------|---------|---------|---------|
|---------|---------|---------|---------|---------|---------|---------|---------|
|                                                                               |
|---------|---------|---------|---------|---------|---------|---------|---------|
|---------|---------|---------|---------|---------|---------|---------|---------|
|---------|---------|---------|---------|-4-----4-|-----4---|-7-----7-|-----7---|
|-2-----2-|-----2---|-5-----5-|-----5---|-4-----4-|-----4---|-7-----7-|-----7---|
|-2-----2-|-----2---|-5-----5-|-----5---|-2-2-2-2-|-2-2-2---|-5-5-5-5-|-5-5-5---|
|-0-0-0-0-|-0-0-0---|-3-3-3-3-|-3-3-3---|---------|---------|---------|---------|
 P.M...... ......    ......... ......    ......... ......    ......... .....]

|-15---17-|-(17)-19-|-15------|-(15)----|-10---12-|-(12)-10-|-12/14-|-(14)-||
|---------|---------|---------|---------|---------|---------|-------|------||
|-12---14-|-(14)-16-|-12------|-(12)----|--7----9-|--(9)--7-|--9/11-|-(11)-||
|---------|---------|---------|---------|---------|---------|-------|------||
|---------|---------|---------|---------|---------|---------|-------|------||
|---------|---------|---------|---------|---------|---------|-------|------||
|                                                                          ||
|---------|---------|---------|---------|---------|---------|-------|------||
|---------|---------|---------|---------|---------|---------|-------|------||
|---------|---------|---------|---------|-4-----4-|-----4---|-7-----|-(7)--||
|-2-----2-|-----2---|-5-----5-|-----5---|-4-----4-|-----4---|-7-----|-(7)--||
|-2-----2-|-----2---|-5-----5-|-----5---|-2-2-2-2-|-2-2-2---|-5-----|-(5)--||
|-0-0-0-0-|-0-0-0---|-3-3-3-3-|-3-3-3---|---------|---------|-------|------||
 P.M...... ......    ......... ......    ......... .....]

3:39
Solo
|-17b19~-|-(19~)-|-(19~)-|-(19~)-|-14-141414141414-|-15p14----14-------|
|--------|-------|-------|-------|-----------------|-------17----17p15-|
|-*------|-------|-------|-------|-----------------|-------------------|
|-*------|-------|-------|-------|-----------------|-------------------|
|--------|-------|-------|-------|-----------------|-------------------|
|--------|-------|-------|-------|-----------------|-------------------|
|                                                                      |
|--------|-------|-------|-------|-----------------|-------------------|
|--------|-------|-------|-------|-----------------|-------------------|
|-*----9-|-8--7--|-----9-|-8--7--|-----------------|---------10--------|
|-*7---9-|-8--7--|-7---9-|-8--7--|-9---------------|---------10--------|
|--7---7-|-6--5--|-7---7-|-6--5--|-9---------------|----------8--------|
|--5-----|-------|-5-----|-------|-7-7-7-7-7-7-7-7-|-7-7-7-7-----------|
                                  P.M.............. .......]

|-14-141414141414-|-15p14-15/17-----|
|-----------------|-----------------|
|-----------------|---------------*-|
|-----------------|---------------*-|
|-----------------|-----------------|
|-----------------|-----------------|
|                                   |
|-----------------|-----------------|
|-----------------|-----------------|
|-----------------|---------10----*-|
|-9---------------|---------10----*-|
|-9---------------|----------8------|
|-7-7-7-7-7-7-7-7-|-7-7-7-7---------|
 P.M.............. .......]

|-20p17----17-20p17-22p17-|-20p17----17-20p17-22p17-|
|-------20----------------|-------20----------------|
|-*-----------------------|-------------------------|
|-*-----------------------|-------------------------|
|-------------------------|-------------------------|
|-------------------------|-------------------------|
|                                                   |
|-------------------------|-------------------------|
|-------------------------|-------------------------|
|-*-----------------------|-10----------------------|
|-*7----------------------|-10----------------------|
|--7----------------------|--8----------------------|
|--5----------------------|-------------------------|

|-20p17----17-20p17-22p17-|-20p19p17----17----------|
|-------20----------------|----------20----20p17h20-|
|-------------------------|-----------------------*-|
|-------------------------|-----------------------*-|
|-------------------------|-------------------------|
|-------------------------|-------------------------|
|                                                   |
|-------------------------|-------------------------|
|-------------------------|-------------------------|
|-7-----------------------|-9---------------------*-|
|-7-----------------------|-9---------------------*-|
|-5-----------------------|-7-----------------------|
|-------------------------|-------------------------|

|--------------|-----------------------|-----------------------|------------------------|
|--19-19-19-18-|-h19p18h19p18h19p18h19-|-p18h19p18h19p18h19p18-|-h19p18h19p18h19p18h19--|
|-*16----16-15-|-h16p15h16p15h16p15h16-|-p15h16p15h16p15h16p15-|-h16p15h16p15h16p15h16*-|
|-*---16-------|-----------------------|-----------------------|----------------------*-|
|--------------|-----------------------|-----------------------|------------------------|
|--------------|-----------------------|-----------------------|------------------------|
|                                                                                       |
|--------------|-----------------------|-----------------------|------------------------|
|--------------|-----------------------|-----------------------|------------------------|
|-*------------|-----------------------|-----------------------|----------------------*-|
|-*9---9--9--8-|-(8)-------------------|-(8)-------------------|-(8)------------------*-|
|--9---9--9--8-|-(8)-------------------|-(8)-------------------|-(8)--------------------|
|--7---7--7--6-|-(6)-------------------|-(6)-------------------|-(6)--------------------|

Fill 2
|-15b~||
|-----||
|-----||
|-----||
|-----||
|-----||

Normal Tempo
|-15b17-----15p13-|-15-15p13p12--12----------|-----------------|
|-----------------|------------15---15p13-15-|-15b17--15p13h15-|
|-----------------|--------------------------|-----------------|
|-----------------|--------------------------|-----------------|
|-----------------|--------------------------|-----------------|
|-----------------|--------------------------|-----------------|
|                                                              |
|-----------------|--------------------------|-----------------|
|-----------------|--------------------------|-----------------|
|-7---------------|--------------------------|-----------------|
|-7---------------|--------------------------|-8---------------|
|-5-5-5-5-5-5-5-5-|-5--5--5--5--5--5--5--5---|-8---------------|
|-----------------|--------------------------|-6-6-6-6-6-6-6-6-|
 P.M.............. .......................... ................]

|-----------------|-------------------|-12-13-13p12------|
|-(15~)-----------|-------------------|------------15-13-|
|-----------12----|--------12-14------|------------------|
|--------------14-|-15--15------------|------------------|
|-----------------|-------------------|------------------|
|-----------------|-------------------|------------------|
|                                                        |
|-----------------|-------------------|------------------|
|-----------------|-------------------|------------------|
|-----------------|-7-----------------|------------------|
|-5---------------|-7-----------------|------------------|
|-5---------------|-5-5-5-5-5-5-5-5-5-|--5-5-5-5-5-5-5-5-|
|-3-3-3-3-3-3-3-3-|-------------------|------------------|
 P.M.............. ................... .................]

|--------15b17----|-15-----12~------|
|-----------------|-----------------|
|-15~-------------|-----------------|
|-----------------|-----------------|
|-----------------|-----------------|
|-----------------|-----------------|
|                                   |
|-----------------|-----------------|
|-----------------|-----------------|
|-3---------------|-5---------------|
|-3---------------|-5---------------|
|-1-1-1-1-1-1-1-1-|-3-3-3-3-3-3-3-3-|
|-----------------|-----------------|
 P.M.............. ................]

Double Tempo
|-14p0-15p0--14p0-|-12p0-14p0--15p0-|-14p0-15p0--14p0-|-12p0-14p0--15p0-|
|-12---13----12---|-10---12----13---|-12---13----12---|-10---12----13---|
|-----------------|-----------------|-----------------|-----------------|
|-----------------|-----------------|-----------------|-----------------|
|-----------------|-----------------|-----------------|-----------------|
|-----------------|-----------------|-----------------|-----------------|
|                                                                       |
|-----------------|-----------------|-----------------|-----------------|
|-----------------|-----------------|-----------------|-----------------|
|-4---------------|-----------------|-7---------------|-----------------|
|-4---------------|-----------------|-7---------------|-----------------|
|-2-2-2-2-2-2-2-2-|-2-2-2-2-2-2-2-2-|-5-5-5-5-5-5-5-5-|-5-5-5-5-5-5-5-5-|
|-----------------|-----------------|-----------------|-----------------|
 P.M.............. ................. ................. ................]

|-17p0-15p0--13p0-|-15p0-13p0--12p0-|-13p0-12p0--10p0-|-12p0-10p0---8p0-|
|-15---13----11---|-13---11----10---|-11---10-----8---|-10----8-----6---|
|-----------------|-----------------|-----------------|-----------------|
|-----------------|-----------------|-----------------|-----------------|
|-----------------|-----------------|-----------------|-----------------|
|-----------------|-----------------|-----------------|-----------------|
|                                                                       |
|-----------------|-----------------|-----------------|-----------------|
|-----------------|-----------------|-----------------|-----------------|
|-----------------|-----------------|-----------------|-----------------|
|-8---------------|-----------------|-5---------------|-----------------|
|-8---------------|-----------------|-5---------------|-----------------|
|-6-6-6-6-6-6-6-6-|-6-6-6-6-6-6-6-6-|-3-3-3-3-3-3-3-3-|-3-3-3-3-3-3-3-3-|
 P.M.............. ................. ................. ................]

                       T           T     T       T           T     T
|----------|--------|-19p15p12h15-19p15-20p15-|-19p15p12h15-19p15-20p15-||
|-15b17-12-|--------|-------------------------|-------------------------||
|-*--------|-15-14*-|-*-----------------------|-----------------------*-||
|-*--------|------*-|-*-----------------------|-----------------------*-||
|----------|--------|-------------------------|-------------------------||
|----------|--------|-------------------------|-------------------------||
|                                                                       ||
|----------|--------|-------------------------|-------------------------||
|----------|--------|-------------------------|-------------------------||
|-*9-------|--------|-*9----------------------|-----------------------*-||
|-*9-----9-|-8---7--|-*9-----------------9----|-8------7--------------*-||
|--7-----9-|-8---7--|--7-----------------9----|-8------7----------------||
|--------7-|-6---5--|--0-----------------7----|-6------5----------------||

Fill 3
|-12~||
|----||
|----||
|----||
|----||
|----||

4:37
Riff O
|-----------------|-----------------|-----------------|-----------------|
|-----------------|-----------------|-----------------|-----------------|
|-----------------|-----------------|-----------------|-----------------|
|-2---------------|-----------------|-5---------------|-----------------|
|-2---------------|-----------------|-5---------------|-----------------|
|-0-0-0-0-0-0-0-0-|-0-0-0-0-0-0-0-0-|-3-3-3-3-3-3-3-3-|-3-3-3-3-3-3-3-3-|
 P.M.............. ................. ................. ................]

|-----------------|-----------------|-----------------|-----------------||
|-----------------|-----------------|-----------------|-----------------||
|-4---------------|-----------------|-7---------------|-----------------||
|-4---------------|-----------------|-7---------------|-----------------||
|-2-2-2-2-2-2-2-2-|-2-2-2-2-2-2-2-2-|-5-5-5-5-5-5-5-5-|-5-5-5-5-5-5-5-5-||
|-----------------|-----------------|-----------------|-----------------||
 P.M.............. ................. ................. ................]

4:48
Lead 3
|-----------------|---12------12b13-|-(13)-------------|-(13)------------|
|-101010---12--13-|-----------------|------------------|-----------------|
|-----------------|----9-------9b10-|-(10)-------------|-(10)------------|
|--7-7-7----9--10-|-----------------|------------------|-----------------|
|-----------------|-----------------|------------------|-----------------|
|-----------------|-----------------|------------------|-----------------|
|                                                                        |
|-----------------|-----------------|------------------|-----------------|
|-----------------|-----------------|------------------|-----------------|
|-----------------|-----------------|-10---------------|-----------------|
|-7---------------|-----------------|-10---------------|-----------------|
|-7---------------|-----------------|--8-8-8-8-8-8-8-8-|-8-8-8-8-8-8-8-8-|
|-5-5-5-5-5-5-5-5-|-5-5-5-5-5-5-5-5-|------------------|-----------------|
 P.M.............. ................. .................. ................]

|------------------|--10-------10b12-|-(12)----r10-----|-10--------------|
|-10----12-----13--|-----------------|-----------------|----------13-----|
|------------------|---7--------7b9--|--(9)------7-----|--7--------------|
|--7-----9-----10--|-----------------|-----------------|----------10-----|
|------------------|-----------------|-----------------|-----------------|
|------------------|-----------------|-----------------|-----------------|
|                                                                        |
|------------------|-----------------|-----------------|-----------------|
|------------------|-----------------|-----------------|-----------------|
|-11---------------|-----------------|-7---------------|-9---------------|
|-11---------------|-----------------|-7---------------|-9---------------|
|--9-9-9-9-9-9-9-9-|-9-9-9-9-9-9-9-9-|-5-5-5-5-5-5-5-5-|-7-7-7-7-7-7-7-7-|
|------------------|-----------------|-----------------|-----------------|
 P.M............... ................. ................. ................]

|-------------------|-----------------|--------------10-|----12----12b14~-|
|-1010-12--13p12p10-|----10--------12-|----13-----------|-----------------|
|-------------------|-9---------------|---------------7-|-----9-----9b11~-|
|--7-7--9--10p9p7---|-----7---------9-|----10-----------|-----------------|
|-------------------|-7---------------|-----------------|-----------------|
|-------------------|-----------------|-----------------|-----------------|
|                                                                         |
|-------------------|-----------------|-----------------|-----------------|
|-------------------|-----------------|-----------------|-----------------|
|-------------------|-----------------|---------------7-|-----9-------11--|
|-7-----------------|-----7---------9-|----10---------7-|-----9-------11--|
|-7-----------------|-----7---------9-|----10---------5-|-----7--------9--|
|-5-5-5-5-5-5-5-5---|-----5---------7-|-----8-----------|-----------------|
 P.M...............]

|-(14~)-----------|-(14~)--------17-|-20b22--r--b--r--|----20~----19~---||
|-----------------|-----------------|-22b24--r--b--r--|----22~----21~---||
|-(11~)-----------|-(11~)--------14-|-17b19--r--b--r--|----17~----16~---||
|-----------------|-----------------|-----------------|-----------------||
|-----------------|-----------------|-----------------|-----------------||
|-----------------|-----------------|-----------------|-----------------||
|                                                                       ||
|-----------------|-----------------|-----------------|-----------------||
|-----------------|-----------------|-----------------|-----------------||
|-----------------|-----------------|-7---------------|-9---------------||
|-----------------|-----------------|-7---------------|-9---------------||
|-9-9-9-9-9-9-9-9-|-9-9-9-9-9-9-9-9-|-5-5-5-5-5-5-5-5-|-7-7-7-7-7-7-7-7-||
|-----------------|-----------------|-----------------|-----------------||
 P.M.............. ................. ................. ................]

Fill 4
|-20~-||
|-22~-||
|-17~-||
|-----||
|-----||
|-----||

5:41
Outro
|---------|-----------|---------|-----------||
|---------|-----------|---------|-----------||
|---------|-----------|---------|-----------||
|---------|-----------|---------|-----------||
|---7---7-|---7---7-7-|---6---6-|---6---6-6-||
|-5---5---|-5---5-----|-5---5---|-5---5-----||
|P.M...... ........... ......... ..........]||
|---------|-----------|---------|-----------||
|First-and|second-time|-only----|-----------||
|---------|-----------|---------|-----------||
|-7-------|-(7)-------|-(7)-----|-(7)-------||
|-7-------|-(7)-------|-(7)-----|-(7)-------||
|-5-------|-(5)-------|-(5)-----|-(5)-------||

Fill 4
|---||
|---||
|---||
|-7-||
|-7-||
|-5-||

Song Structure

Intro  x2
Riff A x1
Riff B x1
Riff C x4

Lead 1

Riff D x2
Riff E x1
Riff F x2
Riff G x2
Riff H x2 (First Ending) (Second Ending)
Riff I x2
Riff J x2 (First Ending) (Second Ending)
Riff J x2 (First Ending) (Third Ending)
Riff K x2

Lead 2

Riff L x2
Riff M x1
Riff N x1
Riff I x2
Riff J x2 (First Ending) (Second Ending)

Solo

Riff D x2
Riff O x2

Lead 3

Riff H x2 (First Ending) (Second Ending)
Riff I x2
Riff J x2 (First Ending) (Second Ending)
Riff J x2 (First Ending) (Third Ending)
Outro  x6
            
Submit corrections


        Ashes To Ashes lessons Hard to play? Try these video lessons and learn fast Ashes To Ashes lessons
        
↑ Back to top | Tablatures and chords for acoustic guitar and electric guitar, ukulele, drums are parodies/interpretations of the original songs. You may use it for private study, scholarship, research or language learning purposes only