» » »

Blake Shelton - Underneath The Same Moon Chords

Artists:  A B C D E F G H I J K L M N O P Q R S T U V W X Y Z # 

Underneath The Same Moon Chords

(ver. 1) Click to play this song!
Blake Shelton
 Rating:
4/5 (4 votes)

 Underneath The Same Moon lessons Tabs too difficult? Try these video lessons and learn fast
 
                Blake Shelton - Underneath The Same Moon

Riff 1:
e----------------------------------------------------------------------
B--11---11---10---10---11---11---10---10---11---11---13---13---11------
G----------------------------------------------------------------------
D-----12---12---12---12---12---12---12---12---12---12---12---12---12---
A----------------------------------------------------------------------
E----------------------------------------------------------------------

e----------
B--11---10-
G----------
D----12----
A----------
E----------

G
Shadows of the night
       F
Moving on the ground
     Bb
Like silent clouds
            C   D
They follow me around
G
As I wander the dark
            F
Through the midnight mist
            Bb
Remembering our last kiss
                C
Do you know how much 
       D
You're missed

Chorus:
Bb                                   A G
Tonight I stand in this lonely place
I search the heavens
For some saving grace
      D    Bb        C       Bb
And I cry, dying without you
I know you're somewhere
                    A  G
Looking up there too
Right now that's all
Two distant hearts can do
   D                  Bb
Oh-ooh, at least were underneath 
     C                   G
Underneath The Same Moon

Riff 2:
e--------------------------------------------------
B--11---11---10---10---11---11---11---13---15------
G---------------------------------------------15---
D-----12---12---12---12---12---12----------------12
A--------------------------------------------------
E--------------------------------------------------

G
Picturing your face
F
Flowers in your hair
         Bb
Like you always wear 
         C       D
Oh I can see you there
G
Longing to be touched
           F
But you're out of reach
   Bb
Oh hold on please
          C        D
Won't you wait for me

Chorus:
A     G
La la la 
La la la
La la la 
   D                 Bb
Oh-ooh at least were underneath
     C                   G
Underneath The Same Moon

Riff 2:

G
Shadows of the night
       F
Moving on the ground
     Bb
Like silent clouds
            C   D
They follow me around
 
            
Submit corrections


        Underneath The Same Moon lessons Hard to play? Try these video lessons and learn fast Underneath The Same Moon lessons
        
↑ Back to top | Tablatures and chords for acoustic guitar and electric guitar, ukulele, drums are parodies/interpretations of the original songs. You may use it for private study, scholarship, research or language learning purposes only