Home » B » Blake Shelton »

Blake Shelton - Gonna Tabs

Artists:  A B C D E F G H I J K L M N O P Q R S T U V W X Y Z # 

Gonna Tabs

(ver. 1) Click to play this song!
Blake Shelton
[Intro Part 1] 

Play once then quickly go into Intro Part 2

e|---------------------------------------------------------------------------|
B|---------------------------------------------------------------------------|
G|---------9-----------------------------------------------------------------|
D|--9h11---------------------------------------------------------------------|
A|---------------------------------------------------------------------------|
E|---------------------------------------------------------------------------|    
              ^^^ 
only played the first time through 


[Intro Part 2] 

play this 4 times

e|---------------------------------------------------------------------------|
B|---------------------------------------------------------------------------|        
G|----------------------9/13--9----9PM-9PM-9-----------9---------------------|
D|----------------------------------------------9--11------------------------|
A|---------------------------------------------------------------------------|
E|---------------------------------------------------------------------------|

e|---------------------------------------------------------------------------|
B|---------------------------------------------------------------------------|
G|--9/13---9----9PM-9PM-9----------------------------------------------------|
D|--------------------------11--9-9------------------------------------------|
A|---------------------------------------------------------------------------|
E|---------------------------------------------------------------------------|
            
Submit corrections

↑ Back to top | Tablatures and chords for acoustic guitar and electric guitar, ukulele, drums are parodies/interpretations of the original songs. You may use it for private study, scholarship, research or language learning purposes only