» » »

Blake Shelton - Austin Tabs

Artists:  A B C D E F G H I J K L M N O P Q R S T U V W X Y Z # 

Austin Tabs

(ver. 1) Click to play this song!
Blake Shelton
 Rating:
4.3/5 (15 votes)

 Austin lessons Tabs too difficult? Try these video lessons and learn fast
 
                [Intro]

   Cadd9       G   Cadd9     Gadd11
e|--------------------------------------------------------------------------|
B|---3---------3-----3----------1p0-----------------------------------------|
G|--0-0-------0-0---0-0-------0-0-------------------------------------------|
D|-2---4-2-0-2---2-2---4-2-0-2----------------------------------------------|
A|3---------------3---------------------------------------------------------|
E|----------3---------------3-----------------------------------------------|


[Verse 1]

   Cadd9   G   Cadd9   G Cadd9 D  Em7  Cadd9   D     G/B  Cadd9       D
e|----------------------------------------------2------------------2-----2--|
B|---3-----3-----3-----3-------3---3-----3-----3-3----0-----3-----3-3---3-3-|
G|--0-0---0-0---0-0---0-0---0-2---0-0---0-0---2---2--0-0---0-0---2---2-2---0|
D|-2---2-2---2-2---2-2---2-2-0---2---2-2---2-0------0---0-2---2-0-----0-----|
A|3-----------3-----------3-----2-----3------------2-----3------------------|
E|------3-----------3-------------------------------------------------------|


    G/B  Cadd9  Dsus4 D
e|----------------3---2-----------------------------------------------------|
B|---0-----3-----3-3--3-----------------------------------------------------|
G|--0-0---0-0---2---2-2-----------------------------------------------------|
D|-0---0-2---2-0------0-----------------------------------------------------|
A|2-----3-------------------------------------------------------------------|
E|--------------------------------------------------------------------------|
     
   Cadd9                     G
She left without leaving a number,
         Cadd9                G
Said she needed to clear her mind.
    Cadd9         D            Em7
He figured she'd gone back to Austin,
           Cadd9                    D
'Cause she talked about it all the time.
G/B            Cadd9            D
It was almost a year, before she called him up.
G/B                Cadd9
Three rings and an answering machine,
Dsus4       D
Is what she got.


[Chorus]

    G   Em  Cadd9 Dsus4 D   Em    G  Cadd9 Dsus4 D    G   G/B  Am7  G/B   C
e|--2----0----2----3----2----0----2----2----3----3----2----3----0----3----0-|
B|--2----0----2----3----3----0----2----2----3----2----2----0----1----0----1-|
G|--0----0----0----2----2----0----0----0----2----3----0----0----0----0----0-|
D|--0----2----2----0----0----2----0----2----0----0----0----0----2----0----2-|
A|--2----2----3--------------2----2----3--------------2----2---------2----3-|
E|--3-----------------------------3-------------------3---------------------|

   G/B  Am    F  Dsus4  D    
e|--3----0----1----3----2---------------------------------------------------|
B|--0----1----1----3----3---------------------------------------------------|
G|--0----2----2----2----2---------------------------------------------------|
D|--0----2----3----0----0---------------------------------------------------|
A|--2----0----3-------------------------------------------------------------|
E|------------1-------------------------------------------------------------|

   Cadd9       G   Cadd9     Gadd11
e|--------------------------------------------------------------------------|
B|---3---------3-----3----------1p0-----------------------------------------|
G|--0-0-------0-0---0-0-------0-0-------------------------------------------|
D|-2---4-2-0-2---2-2---4-2-0-2----------------------------------------------|
A|3---------------3---------------------------------------------------------|
E|----------3---------------3-----------------------------------------------|

          G                 Em
If you're callin' 'bout the car, I sold it.
Cadd9              Dsus4      D
If this is Tuesday night, I'm bowlin'.
Em                         G                        Cadd9
If you've got something to sell, you're wastin' your time,
        Dsus4  D
I'm not buyin'.
        G    G/B Am7                 G/B
If it's anybody  else, wait for the tone,
                  C  G/B
You know what to do. 
Am      F              Dsus4  D
  And P.S., if this is Austin... (Use tab after this part)
        Cadd9     G   Cadd9   Gadd11
I still love you.


[Verse 2]

   Cadd9   G   Cadd9   G Cadd9 D  Em7  Cadd9   D     G/B  Cadd9       D
e|----------------------------------------------2------------------2-----2--|
B|---3-----3-----3-----3-------3---3-----3-----3-3----0-----3-----3-3---3-3-|
G|--0-0---0-0---0-0---0-0---0-2---0-0---0-0---2---2--0-0---0-0---2---2-2---0|
D|-2---2-2---2-2---2-2---2-2-0---2---2-2---2-0------0---0-2---2-0-----0-----|
A|3-----------3-----------3-----2-----3------------2-----3------------------|
E|------3-----------3-------------------------------------------------------|

    G/B  Cadd9  Dsus4 D
e|----------------3---2-----------------------------------------------------|
B|---0-----3-----3-3--3-----------------------------------------------------|
G|--0-0---0-0---2---2-2-----------------------------------------------------|
D|-0---0-2---2-0------0-----------------------------------------------------|
A|2-----3-------------------------------------------------------------------|
E|--------------------------------------------------------------------------|

    Cadd9                 G
The telephone fell to the counter.
      Cadd9                      G
She'd heard, but she couldn't believe.
Cadd9         D         Em7
What kind of man would hang on that long,
Cadd9                        D
What kind of love that must be.
G/B              Cadd9           D
She waited three days, and then she tried again.
G/B                        Cadd9
She didn't know what she'd say,
        Dsus4                 D
But she heard three rings and then:


[Chorus]

    G   Em  Cadd9 Dsus4 D   Em    G  Cadd9 Dsus4 D    G   G/B  Am7  G/B   C
e|--2----0----2----3----2----0----2----2----3----3----2----3----0----3----0-|
B|--2----0----2----3----3----0----2----2----3----2----2----0----1----0----1-|
G|--0----0----0----2----2----0----0----0----2----3----0----0----0----0----0-|
D|--0----2----2----0----0----2----0----2----0----0----0----0----2----0----2-|
A|--2----2----3--------------2----2----3--------------2----2---------2----3-|
E|--3-----------------------------3-------------------3---------------------|

   G/B  Am    F  Dsus4  D    G
e|--3----0----1----3----2----2----------------------------------------------|
B|--0----1----1----3----3----2----------------------------------------------|
G|--0----2----2----2----2----0----------------------------------------------|
D|--0----2----3----0----0----0----------------------------------------------|
A|--2----0----3--------------2----------------------------------------------|
E|------------1--------------3----------------------------------------------|

        G                 Em
If it's Friday night, I'm at the ballgame,
    Cadd9                Dsus4     D
And first thing Saturday, if it don't rain.
Em                    G                 Cadd9             Dsus4 D
I'm headed out to the lake, and I'll be gone all weekend long.
         G            G/B   Am7
But I'll call you back when I get home
   G/B         C   G/B
On Sunday afternoon. 
Am      F              Dsus4   D
  And P.S., if this is Austin...
        G
I still love you.


[Bridge]

   Am   Em   Eb  Dsus4  D  Dsus4  D
e|--0----0----3----3----2----3----2-----------------------------------------|
B|--1----0----4----3----3----3----3-----------------------------------------|
G|--2----0----3----2----2----2----2-----------------------------------------|
D|--2----2----1----0----0----0----0-----------------------------------------|
A|--0----2------------------------------------------------------------------|
E|-------0------------------------------------------------------------------|

      Am
Well this time she left her number,
    Em
But not another word.
         Eb
Then she waited by the phone on Sunday evening,
Dsus4               D       Dsus4 D
And this is what he heard:


[Chorus]

  Asus2  F#m7  Dsus2 Esus4 E F#m  E

e|---0-----0------0-----------0-----0-----------------------------------------|
B|---------------3-3---------2-2----------------------------------------------|
G|--2-2---2-2---2---2--2--1--------1------------------------------------------|
D|-2---2-2---2-0------2--2--4---4-2-------------------------------------------|
A|0------------------2--2--4-----2--------------------------------------------|
E|------2---------------------------------------------------------------------|

   D  Esus4  E    A   A/C# Bm   A/C#  A    D   A/C# Bm    G  Esus4  E
e|-2----0----0----0----5----2----5----0----2----5----2----3----0----0---------|
B|-3----0----0----2----2----3----2----2----3----2----3----3----0----0---------|
G|-2----2----1----2----2----4----2----2----2----2----4----0----2----1---------|
D|-0----2----2----2----2----4----2----2----0----2----4----0----2----2---------|
A|------2----2----0----4----2----4----0---------4----2----2----2----2---------|
E|------0----0---------------------------------------3--------------0---------|

   Dsus2     A
e|---0-------0----------------------------------------------------------------|
B|--3-3-----------------------------------------------------------------------|
G|-2--------2-2---------------------------------------------------------------|
D|0----6-4-2---2--------------------------------------------------------------| x3
A|--------0-------------------------------------------------------------------|
E|----------------------------------------------------------------------------|


          Asus2            F#m7
If you're calling 'bout my heart, It's still yours.
Dsus2             Esus4   E
  I should listen to it a little more.
F#m                     E           D
  Then it wouldn't have taken me so long (Strum chords from D onward)
               Esus4 E
To know, where I  belong.
     A         A/C# Bm              A/C#           A      D   A/C#
And by the way boy,   this is no machine you're talkin' to.
Bm          G                 Esus4   E
  Can't you tell that this is Austin... (Return to fingerpicking)
            Dsus2     A   Dsus2   A
And I still love you.
        Dsus2      A
I still love you...

[Outro]
  
   A     Dsus2
e|----------------------------------------------------------------------------|
B|---2-2---3-----3h5----------------------------------------------------------|
G|---3-3h4-2-2---2------------------------------------------------------------|
D|2----------4p2-2------------------------------------------------------------|
A|2h4------------0------------------------------------------------------------|
E|----------------------------------------------------------------------------|

            
Submit corrections


        Austin lessons Hard to play? Try these video lessons and learn fast Austin lessons
        
↑ Back to top | Tablatures and chords for acoustic guitar and electric guitar, ukulele, drums are parodies/interpretations of the original songs. You may use it for private study, scholarship, research or language learning purposes only