Home » B » Black Stone Cherry »

Black Stone Cherry - Sometimes Chords

Artists:  A B C D E F G H I J K L M N O P Q R S T U V W X Y Z # 

Sometimes Chords

(ver. 1) Click to play this song!
Black Stone Cherry
Riff 1:
   C            G                          D
E|------------------------------------------------------|
A|-1p0-----0---------------------------0----------------|
G|-----0-2---0-------0---2-0-------0------------0---2---|
D|-----------------0---0---------0---0---0----0---0---0-|
A|---------------3--------------------------------------|
D|------------------------------5-----------0-----------|

Riff 2:
  F                  G
E|-------1---1---1/3---3--3--3--------------------------|
A|---1---1---1---1/3---3--3--3--------------------------|
G|---2--------------------4--4--------------------------|
D|-3---3---3---3-----5----5--5--------------------------|
A|------------------------------------------------------|
D|------------------------------------------------------|

Riff 3:
  Am                   G                D
E|-------0--0-0-0-0--0-3-3-3-3-3--3-3-3-2---------------|
A|-----1-1--1-1-1-1--0-3-3-3-3-3--3-3-3-3---------------|
G|-0h2-2-2--2-2-2-2--0-0-0-0-0-0--0-0-0-0---------------|
D|------------------------------------------------------|
A|------------------------------------------------------|
D|------------------------------------------------------|

Intro:
Riff 1 (X2)

Verse 1:
Riff 1 (X4)
Riff 2 (X1)
C           G                                D
Couldn't we pretend that I am fine and this ain't my life,
C                    G         D
it is not the way it ends for me.
C                                              G                     
Couldn't we pretend you are not gone, you are still here,
D
its not true.
C                   G            D
It is not the way it ends for you.
F     G
Oh Whoa

Chorus:
D                             A                   Em
Sometimes I cut myself on the fine line, between laughter and pain,
          G
cause it all feels the same for me.
D                             A               C                       G
Sometimes I wish I could just rewind. I just through all the tears I still want you here with me.

Verse 2:
[Before lyrics start]
Riff 1 (X2)
[After lyrics start]
Riff 1 (X4)
Riff 3 (X1)
C                              G               D
What if I was wrong, to think all this, could last.
C              G         D
It is just not meant to be
C                    G                    D
What if I was right, would you come back, tonight.
C                   G         D
Just the way it was meant to be.
Am    G
Oh Whoa

Chorus:
D                             A                   Em
Sometimes I cut myself on the fine line, between laughter and pain,
          G
cause it all feels the same for me.
D                             A               C                       G
Sometimes I wish I could just rewind. I just through all the tears I still want you here with me.

Bridge A:
    C
And since you been gone Ive been holding on,
     G            D
and I'm still trying
C
To make all this right,
                 G                D
I change my life I'll keep fighting.

Bridge B:
A Bm G D
A Bm G G

Chorus:
D                             A                   Em
Sometimes I cut myself on the fine line, between laughter and pain,
          G
cause it all feels the same for me.
D                             A               C                       G
Sometimes I wish I could just rewind. I just through all the tears I still want you here with me.

D                             A                   Em
Sometimes I cut myself on the fine line, between laughter and pain,
          G
cause it all feels the same for me.
D                             A               C                       G
Sometimes I wish I could just rewind. I just through all the tears I still want you here...

Coda:
D
            
Submit corrections

↑ Back to top | Tablatures and chords for acoustic guitar and electric guitar, ukulele, drums are parodies/interpretations of the original songs. You may use it for private study, scholarship, research or language learning purposes only