Home » B » Blackmore Ritchie »

Blackmore Ritchie - Catherine Howards Fate Tabs

Artists:  A B C D E F G H I J K L M N O P Q R S T U V W X Y Z # 

Catherine Howards Fate Tabs

(ver. 1) Click to play this song!
Blackmore Ritchie
Intro:
|---------3---|-4-34------|-4--3-------|-----------|
|---3-4-6-----|-----6-4---|------6-4-3-|-----3-----|
|-5-------0-5-|---------5-|----0-------|-4-5---4-5-|  (twice)
|-5-----------|-----------|------------|---------5-|
|-------------|-----------|------------|-----------|
|-------------|-----------|------------|-----------|

|-4-3---4-3---|---3-4-3---|------------|---------3-|
|-----6-----4-|-6-------4-|---3-4-6-3--|---3-4-6---|
|-------------|-----------|-5---------4|-5-------0-|
|-------------|-----------|-5----------|-----------|
|-------------|-----------|------------|-----------|
|-------------|-----------|------------|-----------|

(and then repeat during verse)


short solo:
|-3------------|-4-34-------|-------------|-------343-|-------343-|
|---6-4-3-434--|-----6-4-6--|-3-------3---|-3-4-5-----|-3-4-5-----|
|-0----------5-|------------|---5-4-5---4-|-x----(0)--|-x----(0)--|
|--------------|------------|-------------|-----------|-----------|
|--------------|------------|-------------|-----------|-----------|
|--------------|------------|-------------|-----------|-----------|



“…Catherine Howard’s fate  ”
                       |-9-8-6-4-6-3>4-------------|
                       |---------------565-3-------|
                       |---------------------4-5---|
                       |-----------------------5---|
                       |---------------------------|
                       |---------------------------|

/////////
//all corrections are welcome 
////////
            
Submit corrections

↑ Back to top | Tablatures and chords for acoustic guitar and electric guitar, ukulele, drums are parodies/interpretations of the original songs. You may use it for private study, scholarship, research or language learning purposes only