Home » B » Black Lips »

Black Lips - O Katrina Bass

Artists:  A B C D E F G H I J K L M N O P Q R S T U V W X Y Z # 

O Katrina Bass

(ver. 1) Click to play this song!
Black Lips


This is repeated throughout the whole song.  Enjoy.


G--------------------------------:|
D--------------------------------:|
A--7----7--9--7----5----5-----5--:|
E--------------------------7-----:|





   O,  Ka tri na! Why you gotta be 
G----------------------------------:|
D----------------------------------:|
A--7----7--9--7----5---5--------5--:|
E---------------------------7------:|



  mean? 
G----------------------------------:|
D----------------------------------:|
A--7----7--9--7----5---5--------5--:|
E---------------------------7------:|


repeat
            
Submit corrections

↑ Back to top | Tablatures and chords for acoustic guitar and electric guitar, ukulele, drums are parodies/interpretations of the original songs. You may use it for private study, scholarship, research or language learning purposes only