Home » B » Black Lips »

Black Lips - Bad Kids Bass

Artists:  A B C D E F G H I J K L M N O P Q R S T U V W X Y Z # 

Bad Kids Bass

(ver. 1) Click to play this song!
Black Lips
Black Lips-Bad Kids
Chorus
G|------|------|------|------|
D|------|------|3--3--|5--5--| X2
A|3--3--|--7--7|--3--3|--5--5|
E|--3--3|5--5--|------|------|

Verse
G|------|------|
D|------|------|  X4
A|3--3--|--7--7|
E|--3--3|5--5--|

Prechorus
G|-------|---|-------|---|
D|-------|---|-------|---| X2
A|-------|---|-------|---|
E|1-1-1-1|2-3|3-3-3-3|2-1|

Very easy. You should be able to find out the order by your lonesome.
            
Submit corrections

↑ Back to top | Tablatures and chords for acoustic guitar and electric guitar, ukulele, drums are parodies/interpretations of the original songs. You may use it for private study, scholarship, research or language learning purposes only