Home » B » Blackfield »

Blackfield - Oxygen Chords

Artists:  A B C D E F G H I J K L M N O P Q R S T U V W X Y Z # 

Oxygen Chords

(ver. 1) Click to play this song!
Blackfield
 Rating:
3.5/5 (20 votes)
                Picking Pattern
e|-----------------|-----------------|-----------------|-----------------|
B|-----0-----0---0-|-----0-------0---|-----0-----0---0-|-----0-----0---0-|
G|---8-----8-------|---8-------4---4/|---6-----6-------|---6-----6-------|
D|-6-----6-----6---|-6------\2-------|-4-----4-----4---|-4-----4-----4---|
A|-----------------|-----------------|-----------------|-----------------|
E|-----------------|-----------------|-----------------|-----------------|
   G#m                       E         F#sus

e|-----------------|-------------------|-------------------|-----------------|
B|-----0-----0---0-|------0------0---0-|------0------0---0-|-----0-----0---0-|
G|---8-----8-------|---11-----11-------|---11-----11-------|---9-----9-------|
D|-6-----6-----6--/|-9------9------9---|-8------8------8---|-6-----6-----6---|
A|-----------------|-------------------|-------------------|-----------------|
E|-----------------|-------------------|-------------------|-----------------|
   G#m               B                   F#/A#               E/G#

ORDER: V1 C V2 C FC O


[VERSE 1]
G#m         E
    So far a-way
F#sus4
    We lost the way
G#m            B         F#/A#          E/G#
    There's no oxygen left    on our pla - net
G#m      E
    Empty words
F#sus4
    Break on our lips
G#m            B         F#/A#          E/G#
    There's no oxygen left    on our pla - net


[CHORUS]
              Gmaj7 C#m7b5/E    Em7
      Everyone,     sleep - ing with their guns
Gmaj7 C#m7b5/E                 Bm/F# F#m/A Gmaj7
      Some  -  one's going to die
A
      So much noise
Gmaj7 C#m7b5/E   Em7
      We're    a bunch of boys
Gmaj7 C#m7b5/E               Bm/F# F#m/A Gmaj7 A
      We       were born to lie


[VERSE 2]
G#m         E
    I feel a-live
F#sus4
    Just when I cry
G#m            B         F#/A#          E/G#
    There's no oxygen left    on our pla - net
G#m          E
    Things we've said
F#sus4
    And then we crashed
G#m            B          F#/A#          E/G#
    There's no oxygen left     on our pla - net


[CHORUS]
              Gmaj7 C#m7b5/E    Em7
      Everyone,     sleep - ing with their guns
Gmaj7 C#m7b5/E                 Bm/F# F#m/A Gmaj7
      Some  -  one's going to die
A
      So much noise
Gmaj7 C#m7b5/E   Em7
      We're    a bunch of boys
Gmaj7 C#m7b5/E               Bm/F# F#m/A Gmaj7 A
      We       were born to lie


[FINAL CHORUS]
              Gmaj7 C#m7b5/E Gmaj7 C#m7b5/E
      Everyone
              Bm/F# F#m/A    Gmaj7 A

              Gmaj7 C#m7b5/E    Em7
      Everyone,     sleep - ing with their guns
Gmaj7 C#m7b5/E                 Bm/F# F#m/A Gmaj7 A
      Some  -  one's going to die


[OUTRO]
G#m         E
    So far a-way
F#sus4
    We lost the way
G#m            B         F#/A#          E/G#   G#m
    There's no oxygen left    on our pla - net            
Submit corrections

↑ Back to top | Tablatures and chords for acoustic guitar and electric guitar, ukulele, drums are parodies/interpretations of the original songs. You may use it for private study, scholarship, research or language learning purposes only