» » »

Blackberry Smoke - The Whippoorwill Live Tabs

Artists:  A B C D E F G H I J K L M N O P Q R S T U V W X Y Z # 

The Whippoorwill Live Tabs

(ver. 1) Click to play this song!
Blackberry Smoke
 Rating:
3.1/5 (27 votes)

 The Whippoorwill Live  lessons Tabs too difficult? Try these video lessons and learn fast
 
                Tuning: Standard

e|---888/7-777/5-555h---------5--|--888/7-777/5-555/3-3----------------------|
B|--------------------88--5h7-5h7|-----------------------5b-5r-3-------------|
G|-------------------------------|-------------------------------------------|
D|-------------------------------|-------------------------------------------|
A|-------------------------------|-------------------------------------------|
E|-------------------------------|-------------------------------------------|

e|-12-12-12/10--10-10-10/8--888/7--7------8-----------------------------------|
B|-----------------------------------8h10---10--------------------------------|
G|----------------------------------------------------------------------------|
D|----------------------------------------------------------------------------|
A|----------------------------------------------------------------------------|
E|----------------------------------------------------------------------------|

e|-12-12-12/10--10-10-10/8--888/7--7----------|-------------------------------|
B|--------------------------------------------|---------------------8-10b-8---|
G|------------------------------------9b-9r-7-|-------5-7b-7b-5-7/9-----------|
D|--------------------------------------------|---5h7-------------------------|
A|--------------------------------------------|-7-----------------------------|
E|--------------------------------------------|-------------------------------|

e|-------------------------|-------------11-12-13-13/15-12--------------------|
B|----------6-----8------10|-13-12-13-15--------------------------------------|
G|-7br-5---------------------------------------------------14/12--12h14-------|
D|-------5/7---7/8---8/10--|--------------------------------------------------|
A|-------------------------|--------------------------------------------------|
E|-------------------------|--------------------------------------------------|

e|------------------13-13----13----------------------------------------------|
B|-13-15br-13-------13-13----13--15b-15b-------------------------------------|
G|------------12/14-------14-------------------------------------------------|
D|---------------------------------------------------------------------------|
A|---------------------------------------------------------------------------|
E|---------------------------------------------------------------------------|
            
Submit corrections


        The Whippoorwill Live  lessons Hard to play? Try these video lessons and learn fast The Whippoorwill Live  lessons
        
↑ Back to top | Tablatures and chords for acoustic guitar and electric guitar, ukulele, drums are parodies/interpretations of the original songs. You may use it for private study, scholarship, research or language learning purposes only