» » »

Blackberry Smoke - Seems So Far Tabs

Artists:  A B C D E F G H I J K L M N O P Q R S T U V W X Y Z # 

Seems So Far Tabs

(ver. 1) Click to play this song!
Blackberry Smoke
 Rating:
4.2/5 (30 votes)

 Seems So Far lessons Tabs too difficult? Try these video lessons and learn fast
 
                [Intro]

Riff 1:

   G (Rhythm guitar can strum G)   D        G
E|----------------------------------------------------------------------------------------------|
B|----------------------------------------------------------------------------------------------|
D|----------------------------------------------------------------------------------------------|
G|---------------------------------0------------------------------------------------------------| X2
A|--------------0h2-(2)-(2)-3-2-0-----2-0-------------------------------------------------------|
E|--2h3-(3)-(3)---------------------------2-3---------------------------------------------------|

If you are playing alone you can play the riff while struming a G and D chords, like this:

E|------3-3-3---3-3--------2---------3----------------------------------------------------------|
B|------3-3-3---3-3--------3---------3----------------------------------------------------------|
D|------0-0-0---0-0--------2---------0----------------------------------------------------------|
G|----------0--------------0---------0----------------------------------------------------------| X2
A|----------0h2-2-2-3-2-0-----2-0---------------------------------------------------------------|
E|--2h3-3-3------------------------2-3----------------------------------------------------------|
You can also strum G in between the repetitions, and after the last one.

    C
E|--3--3---0--0---0--0----0--0---0---0--0--0---0--0----3-3-3------------------------------------|
B|--1--1---1--1---1--1----1--1---1---1--1--1---1--1----1-1-1------------------------------------|
D|--0--0---0--0---0--0----0--0---0---0--0--0---0--0----0-0-0------------------------------------|
G|--2--2---2--3p2-0--0h2--2--2---2h3-3--3--3p2-0--0h2--2-2-2------------------------------------|
A|--3--3---3--3---3--3----3--3---3---3--3--3---3--3----3-3-3------------------------------------|
E|----------------------------------------------------------------------------------------------|

   G                               D        G
E|----------------------------------------------------------------------------------------------|
B|----------------------------------------------------------------------------------------------|
D|----------------------------------------------------------------------------------------------|
G|---------------------------------0------------------------------------------------------------| X2
A|--------------0h2-(2)-(2)-3-2-0-----2-0-------------------------------------------------------|
E|--2h3-(3)-(3)---------------------------2-3---------------------------------------------------|
Again, if you are alone, just strum G while doing the riff, like explained before.

[Verse 1]

G                           Am7    D
I don't feel much different than I did ten years ago
G                          Am7       D
A few more lines around my lies, but they don't always show
C               Am7/G       C                Am7/G
Time, it just reminds us of where we used to be
    G                       Am7     D                G
And I can say the distance, boy, it seems so far to me


There is a little riff on the transition to the chorus:

(Riff 2)

       P.M* .*
E|--3-------------------------------------------------------------------------------------------|
B|--3---3--3------------------------------------------------------------------------------------|
D|--0---0--0-------0----------------------------------------------------------------------------|
G|--0---0--0--2p0-------------------------------------------------------------------------------|
A|--2---2--2------------------------------------------------------------------------------------|
E|--3-------------------------------------------------------------------------------------------|

*Optional PM, if your are playing alone on a acoustic guitar I recomend you not to.



[Chorus]
        C   Am7         G    
Come so far,   seems so far
D#7                    C7              G (Riff 2)     
Seems like that's what makes us who we are
G   G/B  C   Am7          G/E
Make me  wise   beyond my years
G/F# G                               Am7    D                 G   (Riff 1 X2)
     The end is out there somewhere, but it seems so far from here

[Verse 2]

G                            Am7       D
I've got my share of notches carved on these old bums of mine
G                                 Am7       D
I walk just a little bit crooked, but I'll straighten out just fine
C           Am7/G              C              Am7/G
If I got it right, well, there ain't no guarantee
    G                      Am7     D               G  (Riff 2)
One foot behind the other, son, it seems so far to me


[Chorus]
        C   Am7         G    
Come so far,   seems so far
D#7                    C7              G (Riff 2)     
Seems like that's what makes us who we are
G   G/B  C   Am7          G/E
Make me  wise   beyond my years
G/F# G                               Am7    D                 G 
     The end is out there somewhere, but it seems so far from here

[Bridge]

Riff 3:
       P.M* .*
E|--3-------------------------------------------------------------------------------------------|
B|--3---3--3------------------------------------------------------------------------------------|
D|--0---0--0-------0----------------------------------------------------------------------------|
G|--0---0--0--2p0-------------------------------------------------------------------------------|
A|--2---2--2----------2-3-4---------------------------------------------------------------------|
E|--3-------------------------------------------------------------------------------------------|

Riff 4:

E|----------------------------------------------------------------------------------------------|
B|----------------------------------------------------------------------------------------------|
D|----------------------------------------------------------------------------------------------|
G|----------------------------------------------------------------------------------------------|
A|--2-3-4---------------------------------------------------------------------------------------|
E|----------------------------------------------------------------------------------------------|


(Riff 3)
Dm              Dm/C         G/B   C9       G     (Riff 4)
I don't feel so young, but I don't feel any older
Dm             Dm/C              G/B C9           G    G/F#
All I know for sure is, It ain't   over 'til it's over
Em             G/B                Am               Am/G
Nothin's gonna change me from the ways I'm set in
Am                  C        F*        G    (Riff 1 X2)
I don't know what's waitin' 'round the bend

*Just hit the F note on the last string, first fret, one time


[Chorus]
        C   Am7         G    
Come so far,   seems so far
D#7                    C7              G (Riff 2)     
Seems like that's what makes us who we are
G   G/B  C   Am7          G/E
Make me  wise   beyond my years
G/F# G                               Am7    D                 G    (Riff 1 X2*)
     The end is out there somewhere, but it seems so far from here

*Tip: Slow down the last repetition to end the song.

Chord Guide:

    G  G/B  G/F#  Am  Am7  Am/G  Am7/G   D  D#7  Dm  Dm/C  C   C7
E|--3---3----3-----3---3-----0-----3-----2---6---1---1-----3---3------------------------------|
B|--3---3----3-----1---1-----1-----1-----3---8---3---3-----1---5------------------------------|
D|--0---0----0-----2---0-----2-----0-----2---6---2---2-----0---3------------------------------|
G|--0---0----0-----2---2-----2-----2-----0---8---0---0-----2---5------------------------------|
A|--2---2----------0---0---------------------6-------3-----3---3------------------------------|
E|--3--------2---------------3-----3----------------------------------------------------------|            
Submit corrections


        Seems So Far lessons Hard to play? Try these video lessons and learn fast Seems So Far lessons
        
↑ Back to top | Tablatures and chords for acoustic guitar and electric guitar, ukulele, drums are parodies/interpretations of the original songs. You may use it for private study, scholarship, research or language learning purposes only