Home » B » Blackberry Smoke »

Blackberry Smoke - Pretty Little Lie Tabs

Artists:  A B C D E F G H I J K L M N O P Q R S T U V W X Y Z # 

Pretty Little Lie Tabs

(ver. 1) Click to play this song!
Blackberry Smoke
(1/3)
e|---------------------------------------------------------------------------|
B|-------1/3-3-3-3/1-1-1-1p0---------2/5-5-5-3-3/1-1p0-----3-3---------------|
G|-0-0---2/4-4-4-4/2-2-2-2p0-0-0-0---2/5-5-5-4-4/2-2p0-----------------------|
D|-----0---------------------------0-------------------2/4-----4p2-0-----0---|
A|-------------------------------------------------------------------0h2-----|
E|---------------------------------------------------------------------------|

(2/3)                           n.h.
e|---------0-----------------------------------------------------------------|
B|-----3b5---3-1-0---------------12--2/5-5-5-3-3/1-1p0-----3-----5-----6-----|
G|------------------0-4p2p0---0------2/5-5-5-4-4/2-2p0-----------------------|
D|-0h2----------------------2--------------------------2/4---4/5---5/6-------|
A|---------------------------------------------------------------------------|
E|---------------------------------------------------------------------------|

(3/3)
e|---------------------------------------------------------------------------|
B|------7~-------------------------------------------------------------------|
G|---------------------------------------------------------------------------|
D|-6/7--7~-------------------------------------------------------------------|
A|---------------------------------------------------------------------------|
E|---------------------------------------------------------------------------|
            
Submit corrections

↑ Back to top | Tablatures and chords for acoustic guitar and electric guitar, ukulele, drums are parodies/interpretations of the original songs. You may use it for private study, scholarship, research or language learning purposes only