» » »

Blackberry Smoke - Aint Much Left Of Me Bass

Artists:  A B C D E F G H I J K L M N O P Q R S T U V W X Y Z # 

Aint Much Left Of Me Bass

(ver. 1) Click to play this song!
Blackberry Smoke
 Rating:
4.3/5 (24 votes)

 Aint Much Left Of Me lessons Tabs too difficult? Try these video lessons and learn fast
 
                [Intro]

G|---------------------------------------------------------------------------|
D|-4h5--0-5-5--3-4-5--3-------------------------------------------------/7-5-|
A|----------------------5-3-3--0-1-2-3----3-2-3-2-3-2-------3-2-3-2-3-5------|
E|----------------------------------------------------3-3--------------------|

[Pause]


G|-----------------------------------------------------|
D|--------0-5-5--3-4-5--5------------------------------|
A|-------------------------------3-5-3-2-0-------------|
E|-0h3-3------------------0h3-3-------------3--------3-|


[Verse]

G|--------------------------------------------------|
D|-3------------------------------3-----------------|
A|----3---0-3-3--0-3-----------------3---0-3-3--0-3-|
E|---------------------3---0-3-3--------------------|

G|-----------------------------------------------------------|
D|-----------3-----------------------------3-----------------|
A|--------------3---0-3-3--0-3----------------3--------3-2-3-|
E|-3--3-3--3---------------------3--0-3-3---------3-5--------|


[Chorus]

G|-----------------------------------------------------------------|
D|-----------------------------------------------------------------|
A|-5-5-5-5-5-5-5-5-----------------------------2-3-5-5-5-5-5-5-5-5-|
E|-----------------5-5-5-5-5-5-5-5-3-3-3-3-3-3---------------------|

G|-----------------------------------------------------------------|
D|-----------------------------------------------------------------|
A|-------------0h2-3-3-3-3-3-3-3-3---------5-5-5-5-------------0h2-|
E|-5-5-5-5-5-5---------------------3-3-3-3---------5-5-5-5-5-5-----|

G|-----------------------------------------------------------------|
D|------------------------0-5-5--3-4-5-----------------------------|
A|-3-3-3-3-5-5-5-5----------------------------3-5-3-2-0------------|
E|-----------------0h3-3---------------0h3-3------------3--------3-|


[Verse]

G|---------------------------------------------------|
D|-3-3-----------------------------3-----------------|
A|-----3---0-3-3--0-3-----------------3---0-3-3--0-3-|
E|----------------------3---0-3-3--------------------|

G|-----------------------------------------------------------|
D|-----------3-----------------------------3-----------------|
A|--------------3---0-3-3--0-3----------------3--------3-2-3-|
E|-3--3-3--3---------------------3--0-3-3---------3-5--------|


[Chorus]

G|-------------------------------------------------------------------|
D|-------------------------------------------------------------5-----|
A|-5-5-5-5-5-5-5-5-----------------------------2-3-5-5-5-5-5h7---7-5-|
E|-----------------5-5-5-5-5-5-5-5-3-3-3-3-3-3-----------------------|

G|-----------------------------------------------------------------|
D|-----------------------------------------------------------------|
A|-------------0h2-3-3-3-3-3-3-3-3---------5-5-5-5-------------0h2-|
E|-5-5-5-5-5-5---------------------3-3-3-3---------5-5-5-5-5-5-----|

G|--------------------------------------------------------|
D|------------------------0-5-5--3-4-5--------------------|
A|-3-3-3-3-5-5-5-5----------------------------3-5-3-2-0---|
E|-----------------0h3-3---------------0h3-3------------3-|


[Guitar Solo]

G|----------------------------------------|
D|----------------------------------------|
A|--------------------------3-2--3-2--3-2-|
E|-1-1--0h1-1--1-1-1-3-3--3---------------|

G|-------------------------------------------|
D|---------------------------------3---------|
A|-----------------------------3-5---5-3-----|
E|-1-1--0h1-1--1-1-1-3-3--3--5-----------5-3-|

G|----------------------------------------|
D|----------------------------------------|
A|--------------------------3-2--3-2--3-2-|
E|-1-1--0h1-1--1-1-1-3-3--3---------------|

G|------------------------------|
D|----------------------------5-|
A|---------------/5---5--5--5---|
E|-1-1--0h1-1--1----------------|

[Pause]


G|-------------------------------------3-4-5-5--3------------------|
D|-3-4-5--3-5--0-5-5--3-4-5--3-------5------------5-3--------------|
A|-----------------------------5-3-3-------------------5-2-3-2-----|
E|-------------------------------------------------------------3-3-|

G|------------------|
D|-------------/7-5-|
A|-3-2-3-2-3-5------|
E|------------------|


[Verse]

G|--------------------------------------------------|
D|-3------------------------------3-----------------|
A|----3---0-3-3--0-3-----------------3---0-3-3--0-3-|
E|---------------------3---0-3-3--------------------|

G|-----------------------------------------------------------|
D|-----------3-----------------------------3-----------------|
A|--------------3---0-3-3--0-3----------------3--------3-2-3-|
E|-3--3-3--3---------------------3--0-3-3---------3-5--------|


[Chorus]

G|--------------------------------------------------------------------|
D|--------------------------------------------------------------5-----|
A|-5-5-5-5-5-5-5-5-----------------------------2-3-5-5-5--5-7-7---7-5-|
E|-----------------5-5-5-5-5-5-5-5-3-3-3-3-3-3------------------------|

G|-----------------------------------------------------------------------|
D|-------------------------------3---------------------------------------|
A|--------------0h2-3-3-3-3--3-5---5-3------3--5-5-5-5-------------0h2-3-|
E|-5-5-5--3-5-5------------------------3--5------------5-5-5-5-5-5-------|

[Pause]


[Outro]

G|-------------------------------------------------|
D|--------------0-5-5--3-4-5--5--------------------|
A|-3/10\3------------------------------3-5-3-2-0---|
E|--------0h3-3-----------------0h3-3------------3-|

G|--------------------------------------------|
D|--------0-5-5--3-4-5--5---------------------|
A|-------------------------------3-5-3-2-0----|
E|-0h3-3------------------0h3-3-------------3-|

G|--------------------------------------------|
D|--------0-5-5--3-4-5--5---------------------|
A|-------------------------------3-5-3-2-0----|
E|-0h3-3------------------0h3-3-------------3-|

G|------------------------------------------------------|
D|--------0-5-5--3-4-5--5-------------------------------|
A|--------------------------------3---5---3---2---0-----|
E|-0h3-3------------------0h3-3-----------------------3-|            
Submit corrections


        Aint Much Left Of Me lessons Hard to play? Try these video lessons and learn fast Aint Much Left Of Me lessons
        
↑ Back to top | Tablatures and chords for acoustic guitar and electric guitar, ukulele, drums are parodies/interpretations of the original songs. You may use it for private study, scholarship, research or language learning purposes only