Home » B » Bjorn Afzelius »

Bjorn Afzelius - Bläckfisken Tabs

Artists:  A B C D E F G H I J K L M N O P Q R S T U V W X Y Z # 

Bläckfisken Tabs

(ver. 1) Click to play this song!
Bjorn Afzelius
[Intro]
    Am                         Am/G                     D7/F#
E|-------------------------|-------------------------|-------------------------|
B|--------1--------1-------|--------1--------1-------|--------1--------1-------|
G|--2--------2--------2----|-----------2--------2----|-----------2--------2----|
D|-----2--------2--------2-|-----2--------2--------2-|-----0--------0--------0-|
A|--0--------0-------------|-------------------------|-------------------------|
E|-------------------------|--3--------3-------------|--2--------2-------------|
 
    F-          E             Am                         Am/G
E|-------------------------|--------------------------|-------------------------|
B|--------0-----------0----|--------1--------1^3^1--1-|--------1-------1^3^1----|
G|-----------2-----------1-|-----------2--------------|-----------2-----------2-|
D|-----0-----------2-------|-----2-------(2)----------|-----2-------(2)---------|
A|-------------------------|--0-----------------------|-------------------------|
E|--1-----------0----------|--------------------------|--3----------------------|
 
    D7/F#                     F-
E|-------------------------|-----------------------------|
B|--------1-------1^3^1----|--------0--------------------|
G|-----------2-----------2-|--2--------2---1^2^1--1------|
D|-----0-------(0)---------|-----0-------------------2---|
A|-------------------------|-----------------------------|
E|--2----------------------|--1------------0-------------|
 
[Verse 1]
    Am                        Am/G                      D7/F#
E|-------------------------|-------------------------|-------------------------|
B|--------1--------1-------|--------1--------1-------|--------1--------1-------|
G|--2--------2--------2----|--2--------2--------2----|--2--------2--------2----|
D|-----2--------2--------2-|-----2--------2--------2-|-----0--------0--------0-|
A|--0--------0-------------|-------------------------|-------------------------|
E|-------------------------|--3--------3-------------|--2--------2-------------|
 
    F-          E             Am                        Am/G
E|-------------------------|-------------------------|-------------------------|
B|--------0-----------0----|--------1--------1-------|--------1--------1-------|
G|--2--------2--1--------1-|--2--------2--------2----|--2--------2--------2----|
D|-----0-----------2-------|-----2--------2--------2-|-----2--------2--------2-|
A|-------------------------|--0--------0-------------|-------------------------|
E|--1-----------0----------|-------------------------|--3--------3-------------|
 
    D7/F#                     F-          E             C/G
E|-------------------------|-------------------------|-------------------------|
B|--------1--------1-------|--------0-----------0----|--------1--------1-------|
G|--2--------2--------2----|--2--------2--1--------1-|--0--------0--------0----|
D|-----0--------0--------0-|-----0-----------2-------|-----2--------2--------2-|
A|-------------------------|-------------------------|-------------------------|
E|--2--------2-------------|--1-----------0----------|--3--------3-------------|
 
    F7                       E                         Am
E|------------------------|-------------------------|-------------------------|
B|--------1---------------|--------0--------0-------|--------1--------1-------|
G|--2--------2-3-----2----|--1--------1--------1----|--2--------2--------2----|
D|-----3----------3-----3-|-----2--------2--------2-|-----2--------2--------2-|
A|------------------------|-------------------------|--0--------0-------------|
E|--1---------(1)---------|--0--------0-------------|-------------------------|
 
    C7/G                      F                         E
E|-------------------------|-------------------------|------------------------|
B|--------1--------1-------|--------1--------1-------|--------0--------0------|
G|--3--------3--------3----|--2--------2--------2----|--1--------1---------1--|
D|-----2--------2--------2-|-----3--------3--------3-|-----2--------2---------|
A|-------------------------|-------------------------|------------------------|
E|--3--------3-------------|--1--------1-------------|--0--------0---------0--|
 
                                      MELLANSPEL 1:
     A                                Am                        Am/G
E|--^0------------|----------------|-------------------------|-------------------------|
B|--^2----2--3--5-|--7---5--3--2---|--------1--------1-------|--------1--------1-------|
G|--^2----2--4--6-|--7---6--4--2---|--2--------2--------2----|--2--------2--------2----|
D|--^2------------|----------------|-----2--------2--------2-|-----2--------2--------2-|
A|--^0------------|----------------|--0--------0-------------|-------------------------|
E|----------------|----------------|-------------------------|--3--------3-------------|
 
 
    D7/F#                     F-          E
E|-------------------------|-------------------------|
B|--------1--------1-------|--------0-----------0----|
G|--2--------2--------2----|--2--------2--1--------1-|
D|-----0--------0--------0-|-----0-----------2-------|
A|-------------------------|-------------------------|
E|--2--------2-------------|--1-----------0----------|
 
[Verse 2]
    Am                        Am/G                      D7/F#
E|-------------------------|-------------------------|-------------------------|
B|--------1--------1-------|--------1--------1-------|--------1--------1-------|
G|--2--------2--------2----|--2--------2--------2----|--2--------2--------2----|
D|-----2--------2--------2-|-----2--------2--------2-|-----0--------0--------0-|
A|--0--------0-------------|-------------------------|-------------------------|
E|-------------------------|--3--------3-------------|--2--------2-------------|
 
    F-          E             Am                        Am/G
E|-------------------------|-------------------------|-------------------------|
B|--------0-----------0----|--------1--------1-------|--------1--------1-------|
G|--2--------2--1--------1-|--2--------2--------2----|--2--------2--------2----|
D|-----0-----------2-------|-----2--------2--------2-|-----2--------2--------2-|
A|-------------------------|--0--------0-------------|-------------------------|
E|--1-----------0----------|-------------------------|--3--------3-------------|
 
    D7/F#                     F-          E             C/G
E|-------------------------|-------------------------|-------------------------|
B|--------1--------1-------|--------0-----------0----|--------1--------1-------|
G|--2--------2--------2----|--2--------2--1--------1-|--0--------0--------0----|
D|-----0--------0--------0-|-----0-----------2-------|-----2--------2--------2-|
A|-------------------------|-------------------------|-------------------------|
E|--2--------2-------------|--1-----------0----------|--3--------3-------------|
 
    F7                       E                         Am
E|------------------------|-------------------------|-------------------------|
B|--------1---------------|--------0--------0-------|--------1--------1-------|
G|--2--------2-3-----2----|--1--------1--------1----|--2--------2--------2----|
D|-----3----------3-----3-|-----2--------2--------2-|-----2--------2--------2-|
A|------------------------|-------------------------|--0--------0-------------|
E|--1---------(1)---------|--0--------0-------------|-------------------------|
 
    C7/G                      F                         E
E|-------------------------|-------------------------|------------------------|
B|--------1--------1-------|--------1--------1-------|--------0--------0------|
G|--3--------3--------3----|--2--------2--------2----|--1--------1---------1--|
D|-----2--------2--------2-|-----3--------3--------3-|-----2--------2---------|
A|-------------------------|-------------------------|------------------------|
E|--3--------3-------------|--1--------1-------------|--0--------0---------0--|
 
                              MELLANSPEL 2:
     A                        Am                        Am/G
E|--^0--^0-^0--^0--^0-^0---|-------------------------|-------------------------|
B|--^2--^2-^2--^2--^2-^1---|--------1--------1-------|--------1--------1-------|
G|--^2--^2-^2--^2--^2-^2---|--2--------2--------2----|--2--------2--------2----|
D|--^2--^2-^2--^2--^2-^2---|-----2--------2--------2-|-----2--------2--------2-|
A|--^0---0-^0--^0--^0-^0---|--0--------0-------------|-------------------------|
E|-------------------------|-------------------------|--3--------3-------------|
 
                                                        REFRÄNG:
    D7/F#                     F-                        Am            Dm D5 D5
E|-------------------------|-------------------------|-^0--0--0--0-|-^1--0------|
B|--------1--------1-------|--------0-----------0----|-^1--1--1--1-|-^3--3--3---|
G|--2--------2--------0----|--2--------2--1--------1-|-^2--2--2--2-|-^2--2--2---|
D|-----0--------0--------2-|-----0-----------2-------|-^2----------|-^0-----0---|
A|-------------------------|-------------------------|-^0----------|------------|
E|--2--------2-------------|--1-----------0----------|-------------|------------|
 
 
                  G                 Am            Dm D5 D5                  G
E|-------------|-----------------|--0--0--0--0-|-^1--0-----|-------------|----|
B|--5--3--1----|--0--------------|-----1--1--1-|-^3--3--3--|--5--3--1----|--0-|
G|--5--4--2--2-|--0--------------|-----2--2--2-|-^2--2--2--|--5--4--2--2-|--0-|
D|-----------2-|-----------0-----|-------------|-^0-----0--|-----------2-|----|
A|-------------|-------0^2-----2-|--0----------|-----------|-------------|----|
E|-------------|--3--------------|-------------|-----------|-------------|--3-|
 
    MELLANSPEL 3:
    Am                        Am/G                      D/F#
E|-------------------------|-------------------------|-------------------------|
B|--------1--------1-------|--------1--------1-------|--------1--------1-------|
G|--2--------2--------2----|--2--------2--------2----|--2--------2--------2----|
D|-----2--------2--------2-|-----2--------2--------2-|-----0--------0--------0-|
A|--0--------0-------------|-------------------------|-------------------------|
E|-------------------------|--3--------3-------------|--2--------2-------------|
 
    F-      E
E|-------------------------|
B|--------0-----------0----|
G|--2--------2--1--------1-|
D|-----0-----------2-------|
A|-------------------------|
E|--1-----------0----------|
 
[Verse 3]
    Am                        Am/G                      D7/F#
E|-------------------------|-------------------------|-------------------------|
B|--------1--------1-------|--------1--------1-------|--------1--------1-------|
G|--2--------2--------2----|--2--------2--------2----|--2--------2--------2----|
D|-----2--------2--------2-|-----2--------2--------2-|-----0--------0--------0-|
A|--0--------0-------------|-------------------------|-------------------------|
E|-------------------------|--3--------3-------------|--2--------2-------------|
 
    F           E             Am                        Am/G
E|-------------------------|-------------------------|-------------------------|
B|--------0-----------0----|--------1--------1-------|--------1--------1-------|
G|--2--------2--1--------1-|--2--------2--------2----|--2--------2--------2----|
D|-----0-----------2-------|-----2--------2--------2-|-----2--------2--------2-|
A|-------------------------|--0--------0-------------|-------------------------|
E|--1-----------0----------|-------------------------|--3--------3-------------|
 
    D7/F#                     F           E             C/G
E|-------------------------|-------------------------|-------------------------|
B|--------1--------1-------|--------0-----------0----|--------1--------1-------|
G|--2--------2--------2----|--2--------2--1--------1-|--0--------0--------0----|
D|-----0--------0--------0-|-----0-----------2-------|-----2--------2--------2-|
A|-------------------------|-------------------------|-------------------------|
E|--2--------2-------------|--1-----------0----------|--3--------3-------------|
 
    F7                       E                         Am
E|------------------------|-------------------------|-------------------------|
B|--------1---------------|--------0--------0-------|--------1--------1-------|
G|--2--------2-3-----2----|--1--------1--------1----|--2--------2--------2----|
D|-----3----------3-----3-|-----2--------2--------2-|-----2--------2--------2-|
A|------------------------|-------------------------|--0--------0-------------|
E|--1---------(1)---------|--0--------0-------------|-------------------------|
 
    C7/G                      F                         E
E|-------------------------|-------------------------|------------------------|
B|--------1--------1-------|--------1--------1-------|--------0--------0------|
G|--3--------3--------3----|--2--------2--------2----|--1--------1---------1--|
D|-----2--------2--------2-|-----3--------3--------3-|-----2--------2---------|
A|-------------------------|-------------------------|------------------------|
E|--3--------3-------------|--1--------1-------------|--0--------0---------0--|
 
    A
E|-^0--^0-^0--^0--^0-^0---|
B|-^2--^2-^2--^2--^2-^1---|
G|-^2--^2-^2--^2--^2-^2---|
D|-^2--^2-^2--^2--^2-^2---|
A|-^0---0-^0--^0--^0-^0---|
E|------------------------|
 
    MELLANSPEL 4:
    Am                        Am/G                      D7/F#
E|-------------------------|-------------------------|-------------------------|
B|--------1--------1-------|--------1--------1-------|--------1--------1-------|
G|--2--------2--------2----|--2--------2--------2----|--2--------2--------2----|
D|-----2--------2--------2-|-----2--------2--------2-|-----0--------0--------0-|
A|--0--------0-------------|-------------------------|-------------------------|
E|-------------------------|--3--------3-------------|--2--------2-------------|
                               REFRÄNG 2:
    F-          E              Am            Dm D5 D5               G
E|-------------------------|--^0--0--0--0-|-^1--0------|-------------|-----------------|
B|--------0-----------0----|--^1--1--1--1-|-^3--3--3---|--5--3--1----|--0--------------|
G|--2--------2--1--------1-|--^2--2--2--2-|-^2--2--2---|--5--4--2--2-|--0--------------|
D|-----0-----------2-------|--^2----------|-^0-----0---|-----------2-|-----------0-----|
A|-------------------------|--^0----------|------------|-------------|-------0^2-----2-|
E|--1-----------0----------|--------------|------------|-------------|--3--------------|
 
    Am            Dm D5 D5                   G
E|--0--0--0--0-|-^1--0------|-------------|-------------------|
B|-----1--1--1-|-^3--3--3---|--5--3--1----|--0----------------|
G|-----2--2--2-|-^2--2--2---|--5--4--2--2-|--0----------------|
D|-------------|-^0-----0---|-----------2-|-----------0-------|
A|--0----------|------------|-------------|-------0^2-----2---|
E|-------------|------------|-------------|--3----------------|
 
    MELLANSPEL 5
    Am                         Am/G                       D7/F#
E|--------------------------|--------------------------|-------------------------|
B|--------1--------1^3^1--1-|--------1--------1^3^1----|--------1-------1^3^1----|
G|-----------2--------------|-----------2------------2-|-----------2-----------2-|
D|-----2-------(2)----------|-----2-------(2)----------|-----0-------(0)---------|
A|--0-----------------------|--------------------------|-------------------------|
E|--------------------------|--3-----------------------|--2----------------------|
 
[Verse 4]
    F                           Am                        Am/G
E|---------------------------|-------------------------|-------------------------|
B|--------0------------------|--------1--------1-------|--------1--------1-------|
G|--2--------2---1^2^1--1----|--2--------2--------2----|--2--------2--------2----|
D|-----0-------------------2-|-----2--------2--------2-|-----2--------2--------2-|
A|---------------------------|--0--------0-------------|-------------------------|
E|--1------------0-----------|-------------------------|--3--------3-------------|
 
 
    D7/F#                    F-         E              Am
E|-------------------------|-------------------------|-------------------------|
B|--------1--------1-------|--------0-----------0----|--------1--------1-------|
G|--2--------2--------2----|--2--------2--1--------1-|--2--------2--------2----|
D|-----0--------0--------0-|-----0-----------2-------|-----2--------2--------2-|
A|-------------------------|-------------------------|--0--------0-------------|
E|--2--------2-------------|--1-----------0----------|-------------------------|
 
 
    Am/G                      D7/F#                  F-          E
E|-------------------------|-------------------------|-------------------------|
B|--------1--------1-------|--------1--------1-------|--------0-----------0----|
G|--2--------2--------2----|--2--------2--------2----|--2--------2--1--------1-|
D|-----2--------2--------2-|-----0--------0--------0-|-----0-----------2-------|
A|-------------------------|-------------------------|-------------------------|
E|--3--------3-------------|--2--------2-------------|--1-----------0----------|
 
 
    C/G                       F7                       E
E|-------------------------|------------------------|-------------------------|
B|--------1--------1-------|--------1---------------|--------0--------0-------|
G|--0--------0--------0----|--2--------2-3-----2----|--1--------1--------1----|
D|-----2--------2--------2-|-----3----------3-----3-|-----2--------2--------2-|
A|-------------------------|------------------------|-------------------------|
E|--3--------3-------------|--1---------(1)---------|--0--------0-------------|
 
 
    Am                        C7/G                      F
E|-------------------------|-------------------------|-------------------------|
B|--------1--------1-------|--------1--------1-------|--------1--------1-------|
G|--2--------2--------2----|--3--------3--------3----|--2--------2--------2----|
D|-----2--------2--------2-|-----2--------2--------2-|-----3--------3--------3-|
A|--0--------0-------------|-------------------------|-------------------------|
E|-------------------------|--3--------3-------------|--1--------1-------------|
 
 
    E                       A
E|----------------------|--^0------------|----------------|
B|--------0--------0----|--^2----2--3--5-|--7---5--3--2---|
G|--1--------1--------1-|--^2----2--4--6-|--7---6--4--2---|
D|-----2--------2-------|--^2------------|----------------|
A|----------------------|--^0------------|----------------|
E|--0--------0--------0-|----------------|----------------|
 
    MELLANSPEL 6:
    Am                         Am/G                       D7/F#
E|--------------------------|--------------------------|--------------------------|
B|--------1--------1^3^1--1-|--------1--------1^3^1----|--------1--------1^3^1----|
G|-----------2--------------|-----------2------------2-|-----------2------------2-|
D|-----2-------(2)----------|-----2-------(2)----------|-----0-------(0)----------|
A|--0-----------------------|--------------------------|--------------------------|
E|--------------------------|--3-----------------------|--2-----------------------|
 
[Outro]
    F                            Am            Dm D5 D5
E|-----------------------------|--0--0--0--0-|--1--0------|-------------|
B|--------0--------------------|-----1--1--1-|--3--3--3---|--5--3--1----|
G|--2--------2---1^2^1--1------|-----2--2--2-|--2--2--2---|--5--4--2--2-|
D|-----0-------------------2---|-------------|--------0---|-----------2-|
A|-----------------------------|--0----------|------------|-------------|
E|--1------------0-------------|-------------|------------|-------------|
 
    G                 Am            Dm D5 D5                   G                    Am
E|-----------------|--0--0--0--0-|--1--0------|-------------|-------------------|--^0---|
B|--0--------------|-----1--1--1-|--3--3--3---|--5--3--1----|--0----------------|--^1---|
G|--0--------------|-----2--2--2-|--2--2--2---|--5--4--2--2-|--0----------------|--^2---|
D|-----------0-----|-------------|--------0---|-----------2-|-----------0-------|-------|
A|-------0^2-----2-|--0----------|------------|-------------|-------0^2-----2---|--^0---|
E|--3--------------|-------------|------------|-------------|--3----------------|-------|
            
Submit corrections

↑ Back to top | Tablatures and chords for acoustic guitar and electric guitar, ukulele, drums are parodies/interpretations of the original songs. You may use it for private study, scholarship, research or language learning purposes only