Home » B » Bishop Allen »

Bishop Allen - Wild Horses Tabs

Artists:  A B C D E F G H I J K L M N O P Q R S T U V W X Y Z # 

Wild Horses Tabs

(ver. 1) Click to play this song!
Bishop Allen
Tuning: Standard 

(VERSE 1)
e|--------------------------------------------------------------------------------------|
B|----4----4------8----8------4----4------8----8------4----4------8----8------4----4----|
G|-----5----5------8----8------5----5------8----8------5----5------8----8------5----5---|
D|--------------------------------------------------------------------------------------|
A|-3-----3----/6-----6----\3-----3----/6-----6----\3-----3----/6-----6------------------|
E|------------------------------------------------------------------------/4-----4------|

e|---------------|
B|----9----9-----|
G|-----10---10---|
D|---------------|
A|-8-----8-------|
E|---------------|

(Short interlude after 1st Chorus)
e|--------------------------------------------------------------------------------------|
B|----4----4------8----8----------------------------------------------------------------|
G|-----5----5------8----8---------------------------------------------------------------|
D|--------------------------------------------------------------------------------------|
A|-3-----3----/6-----6------------------------------------------------------------------|
E|--------------------------------------------------------------------------------------|

(VERSE 2)
e|--------------------------------------------------------------------------------------|
B|----4----4------8----8------4----4------8----8------4----4------8----8------4----4----|
G|-----5----5------8----8------5----5------8----8------5----5------8----8------5----5---|
D|--------------------------------------------------------------------------------------|
A|-3-----3----/6-----6----\3-----3----/6-----6----\3-----3----/6-----6------------------|
E|------------------------------------------------------------------------/4-----4------|

e|---------------|
B|----9----9-----|
G|-----10---10---|
D|---------------|
A|-8-----8-------|
E|---------------|


(Bridge 2)
e|--------------------------------------------------------------------------------------|
B|-4-x-4-x-4------4-x-4-x-4------4-x-4-x-4----------------------------------------------|
G|-5-x-5-x-5------5-x-5-x-5------5-x-5-x-5----------------------------------------------|
D|-x-x-x-x-x------x-x-x-x-x-------------------------------------------------------------|
A|-3-x-3-x-3------3-x-3-x-3-------------------------------------------------------------|
E|-----------6b-------------------------------------------------------------------------|

(Last Verse)
e|--------------------------------------------------------------------------------------|
B|----4----4------8----8------4----4------8----8------4----4------8----8------4----4--x-|
G|-----5----5------8----8------5----5------8----8------5----5------8----8------5----5-x-|
D|--------------------------------------------------------------------------------------|
A|-3-----3----/6-----6----\3-----3----/6-----6----\3-----3----/6-----6------------------|
E|------------------------------------------------------------------------/4-----4------|
            
Submit corrections

↑ Back to top | Tablatures and chords for acoustic guitar and electric guitar, ukulele, drums are parodies/interpretations of the original songs. You may use it for private study, scholarship, research or language learning purposes only