Home » B » Bing Crosby »

Bing Crosby - Thats An Irish Lullaby Tabs

Artists:  A B C D E F G H I J K L M N O P Q R S T U V W X Y Z # 

Thats An Irish Lullaby Tabs

(ver. 1) Click to play this song!
Bing Crosby
[Verse 1]

e|---------------------------------------------------|
B|---------------1-3-1---------------------0-1-------|
G|---0-------0-3-------0-3-3-0-------0-3-3---------0-|
D|-----3-1-3-------------------3-1-3-----------3-3---|
A|---------------------------------------------------|
E|---------------------------------------------------|

e|---------------------------------------------------|
B|-----------------------1-3-1---------1-3-4-3-1-----|
G|-------0-------0-3-0-3-------0-3-0-3-----------3-0-|
D|-3-1-3---3-1-3-------------------------------------|
A|---------------------------------------------------|
E|---------------------------------------------------|

e|---------------------------------------------------|
B|---------------------------------------------------|
G|---0-----0-----------------------------------------|
D|-1---3-3---3-4-------------------------------------|
A|---------------------------------------------------|
E|---------------------------------------------------|

[Chorus]

e|---------------------------------------------------|
B|---------------1-0-1-3-4-4-3-4-1-----1-------------|
G|---0-------0-3-------------------3-0-------0-----0-|
D|-----3-1-3-----------------------------3-3---3-4---|
A|---------------------------------------------------|
E|---------------------------------------------------|

e|---------------------------------------------------|
B|-----------1-0-1-3-4-4-3-4-1-----------------------|
G|-------0-3-------------------3-0-----0-------------|
D|-3-1-3---------------------------3-1---1-1-1-1-----|
A|---------------------------------------------------|
E|---------------------------------------------------|

[Verse 2]

e|---------------------------------------------------|
B|---------------1-3-1---------------------0-1-------|
G|---0-------0-3-------0-3-3-0-------0-3-3---------0-|
D|-----3-1-3-------------------3-1-3-----------3-3---|
A|---------------------------------------------------|
E|---------------------------------------------------|

e|---------------------------------------------------|
B|-----------------------1-3-1---------1-3-4-3-1-----|
G|-------0-------0-3-0-3-------0-3-0-3-----------3-0-|
D|-3-1-3---3-1-3-------------------------------------|
A|---------------------------------------------------|
E|---------------------------------------------------|

e|---------------------------------------------------|
B|---------------------------------------------------|
G|---0-----0-----------------------------------------|
D|-1---3-3---3-4-------------------------------------|
A|---------------------------------------------------|
E|---------------------------------------------------|

[Chorus]

e|---------------------------------------------------|
B|---------------1-0-1-3-4-4-3-4-1-----1-------------|
G|---0-------0-3-------------------3-0-------0-----0-|
D|-----3-1-3-----------------------------3-3---3-4---|
A|---------------------------------------------------|
E|---------------------------------------------------|

e|---------------------------------------------------|
B|-----------1-0-1-3-4-4-3-4-1-----------------------|
G|-------0-3-------------------3-0-----0-------------|
D|-3-1-3---------------------------3-1---1-1-1-1-----|
A|---------------------------------------------------|
E|---------------------------------------------------|

[Chorus]

e|---------------------------------------------------|
B|---------------1-0-1-3-4-4-3-4-1-----1-------------|
G|---0-------0-3-------------------3-0-------0-----0-|
D|-----3-1-3-----------------------------3-3---3-4---|
A|---------------------------------------------------|
E|---------------------------------------------------|

e|---------------------------------------------------|
B|-----------1-0-1-3-4-4-3-4-1---------1-4-4-3-4-----|
G|-------0-3-------------------3-0-0-3---------------|
D|-3-1-3---------------------------------------------|
A|---------------------------------------------------|
E|---------------------------------------------------|
            
Submit corrections

↑ Back to top | Tablatures and chords for acoustic guitar and electric guitar, ukulele, drums are parodies/interpretations of the original songs. You may use it for private study, scholarship, research or language learning purposes only